Offspring:

: Offspring - "BAD HABIT"










[ne]FORMAT



MIDI







BAD HABIT

Offspring


intro

|---------------------|
|---------------------|
|-2--x-x-x-2--x-x-x-2-|
|-2--x-x-x-2--x-x-x-2-|
|-0--x-x-x-0--x-x-x-0-|
|---------------------|

verse

|-----------------------------------|
|-----------------------------------|
|-2-5-7-5-2-5-2-5-2-----------------|
|-2-5-7-5-2-5-2-5-2----let ring-----|
|-0-3-5-3-0-3-0-3-0-then pick slide-|
|-----------------------------------|

rhythm 1

|-----------------------------------------|
|-----------------------------------------|
|-----------------------------------------|
|-5---------5---------5---------5---------|
|-5---------5---------5---------5---------|
|-3-3-3-3-3-3-3-3-3-3-3-3-3-3-3-3-3-3-3-3-|

|-----------------------------------------|
|-----------------------------------------|
|-9---------9---------9---------9---------|
|-9---------9---------9---------9---------|
|-7-7-7-7-7-7-7-7-7-7-7-7-7-7-7-7-7-7-7-7-|
|-----------------------------------------|

chorus

|-------------------------|
|-------------------------|
|-2-9-10-5--7-7-7--9-9-9--|
|-2-9-10-5--7-7-7--9-9-9--|
|-0-7-8--3--5-5-5--7-7-7--|
|-------------------------|

rhythm 2
|-----------------------------------------------------|
|-----------------------------------------------------|
|-2-----------------x-10-10---7-----------------x-9-9-|
|-2-----------------x-10-10---7-----------------x-9-9-|
|-0-0-0-0-0-0-0-0-0-x-8--8----5-5-5-5-5-5-5-5-5-x-7-7-|
|-----------------------------------------------------|

|-------------------------------------------|
|-------------------------------------------|
|-x-9-9-9-9-9-9-9-9------2------------------|
|-x-9-9-9-9-9-9-9-9------2--then pick slide-|
|-x-7-7-7-7-7-7-7-7------0------------------|
|-------------------------------------------|

|---------------------|
|---------------------|
|-9-9-8-7-7-9-8-7-5-2-|
|-7-7-6-5-5-9-8-7-5-2-|
|-----------7-6-5-3-0-|
|---------------------|