Offspring:

: Offspring - "NITRO"










[ne]FORMAT



MIDI







NITRO

Offspring


intro

|-----------------------------------------------------|
|-----------------------------------------------------|
|-10-10-10-10----13---10-8-10---------------8-8-8-8---|
|-10-10-10-10----13---10-8-10----6-6-6-6----8-8-8-8---|
|-8--8--8--8-----11---8--6-8-----6-6-6-6----6-6-6-6---|
|--------------------------------4-4-4-4--------------|

verse

|--------------|-------------------|-----------------------|
|--------------|-------------------|-----------------------|
|-10-------8---|---10-------8---8--|--10-------8---6*--8*--|
|-10---6---8---|---10---6---8---8--|--10---6---8---6---8---|
|-8----6---6---|---8----6---6---6--|--8----6---6---4---6---|
|------4-------|--------4----------|-------4---------------|

chorus 1

|-------------------|-------------------|----------------------|
|-------------------|-------------------|----------------------|
|-10-10-10-10-----8-|-10-10-10-10-----8-|----------------------|
|-10-10-10-10-5-6-8-|-10-10-10-10-5-6-8-|-3*-6*-8*-11-11-13-13-|
|-8--8--8--8--5-6-6-|-8--8--8--8--5-6-6-|-3--6--8--11-11-13-13-|
|-------------3-4---|-------------3-4---|-1--4--6--9--9--11-11-|

chorus 2

------------------------------------------|
|-----------------------------------------|
|-10-10-10-10---------------------6--8----|
|-10-10-10-10--6-6-6-6--8-8-8-8---6--8----|
|-8--8--8--8---6-6-6-6--8-8-8-8---4--6----|
|--------------4-4-4-4--6-6-6-6-----------|

rhythm 1

|---------------------------------------|
|---------------------------------------|
|-10-10--------8-8---10-10---------8--8-|
|-10-10--6-6---8-8---10-10---6-6---8--8-|
|-8--8---6-6---6-6---8--8----6-6---6--6-|
|--------4-4-----------------4-4--------|

rhythm 2

|---------------------------------|
|---------------------------------|
|---------------------------------|
|-3*--6*--8*--11--11--13--13------|
|-3---6---8---11--11--13--13------|
|-1---4---6---9---9---11--11------|

|---------------------------------------|
|---------------------------------------|
|-5-5-5---------------------------------|
|-5-5-5---6-6-6---8-8-8---3--3--3--6--3-|
|-3-3-3---6-6-6---8-8-8---3--3--3--6--3-|
|---------4-4-4---6-6-6---1--1--1--4--1-|

|---------------------------|
|---------------------------|
|-5-5-5----------------6--8-|
|-5-5-5--6-6-6--8-8-8--6--8-|
|-3-3-3--6-6-6--8-8-8--4--6-|
|--------4-4-4--6-6-6-------|

outro

|--------------------|
|-9--9--9--9--9--9---|
|--10-10-10-10-10-10-|
|--------------------|
|--------------------|
|--------------------|