Nirvana::

: Nirvana: - "On A Plain"










[ne]FORMAT



MIDI







On A Plain

( "Nevermind")

Nirvana:

: Kurt Cobain
: jesse.scott@baroque.tvk.tsoft.net



 
TUNING: Dropped-D & Down a Half-Step (Db Ab Db Gb Bb Eb)
 
Main Riff:
Repeat this until the first chorus.
 
-|--------------------------------|-
-|--7-7-7--7-7-7--2-2-2-----------|-
-|--7-7-7--7-7-7--2-2-2-----------|-
-|--7-7-7--7-7-7--2-2-2-----------|-
-|--5-5-5--5-5-5--0-0-0-----------|-
-|---------5-5-5---------2-3-2-0--|-
 
Chorus:
 
-|-----------------------------------------|-
-|--7-7-7--7-7-7--10-10-10-10-10-10-10-10--|-
-|--7-7-7--7-7-7--10-10-10-10-10-10-10-10--|-
-|--7-7-7--7-7-7--10-10-10-10-10-10-10-10--|-
-|--5-5-5--5-5-5---8--8--8--8--8--8--8--8--|-
-|---------5-5-5---8--8--8--8--8--8--8--8--|-
 
Bridge:
Play this after the second chorus
 
-|------------------------------------------|-
-|------------------------------------------|-
-|----------------------2--2-2-2------------|-
-|--3--3-3-3--2--2-2-2--2--2-2-2--5--5-5-5--|-
-|--3--3-3-3--2--2-2-2--0--0-0-0--5--5-5-5--|-
-|--3--3-3-3--2--2-2-2------------5--5-5-5--|-