Nirvana:

: Nirvana - "Come As You Are"










[ne]FORMAT



MIDI







Come As You Are

( "Nevermind")

Nirvana

: Kurt Cobain
: jesse.scott@baroque.tvk.tsoft.net





 
TUNING: Down a Half-Step (Eb Ab Db Gb Bb Eb)
 
Main Riff:
 
This is repeated for most of the song
-|---------------------------------------------|-
-|---------------------------------------------|-
-|---------------------------------------------|-
-|---------------------------------------------|-
-|---------------0-----0--------------2--------|-
-|--0--0--1--2------2-----2--2--1--0-----0--0--|-
 
<Cont. Next Msg>

--
Internet E-Mail: Jesse.Scott@baroque.tvk.tsoft.net
~From: Jesse.Scott@baroque.tvk.tsoft.net (Jesse Scott)
~Date: 02 Jun 94 07:37:22 -0500
~Subject: TAB: Nirvana Unplugged <Cont.>

Pre-Chorus:
 
  Memorie-e-e-e-ah
-|--2--2--2--2--------------|-
-|--2--2--2--2--2--2--2--2--|-
-|--3--3--3--3--2--2--2--2--|-
-|--4--4--4--4--2--2--2--2--|-
-|--4--4--4--4--0--0--0--0--|-
-|--2--2--2--2--------------|-
 
Chorus:
 
  And I swear that I don't..
-|--------------------------------|-
-|--4--4--4--4--4--2--2--2--2--2--|-
-|--4--4--4--4--4--2--2--2--2--2--|-
-|--4--4--4--4--4--2--2--2--2--2--|-
-|--2--2--2--2--2--0--0--0--0--0--|-
-|--------------------------------|-
 
Solo:
Repeat the entire solo 2 times.
 
  Repeat x3              Every 3rd time play this ending
-|----------------------|------------------------------|-
-|--5-5/7-7-7/10-10-10--|--10/12-12-12/14-14-12-12-10--|-
-|----------------------|------------------------------|-
-|----------------------|------------------------------|-
-|----------------------|------------------------------|-
-|----------------------|------------------------------|-