Kurt Cobain:

: Kurt Cobain - "Dumb"










[ne]FORMAT



MIDI







Dumb

Kurt Cobain



  Verse/Chorus: E5 A5 G5 C5
  Bridge: B5 C5

Verse
G----------------------------------------------|
D----------------------------------------------|
A-----------------333-0-----------------333-0--|
E--00-555-0-33----------00-555-0-33------------|

Chorus                        x4
G---------------------------|
D---------------------------|
A---------------------------|
E--0-00-000----3-33-333-----|

Middle                     x3
G--------------------------------------|
D--------------------------------------|
A-2-22-222---3-33-333---22222--3-------|
E--------------------------------------|

Back To verse