Kurdt Cobain:

: Kurdt Cobain - "Negative Creep"










[ne]FORMAT



MIDI







Negative Creep

Kurdt Cobain



Tuned In Dropped D Flat

G----------------------------------|
D----------------------------------|
A----------------------------------|
D---12-12-12-12-12-12-12-12-12\0---|

G------------------------|
D------------------------|
A------------------------|
D---0-0-0-0-0-0-0-0/12---|

Chorus

G--------------------------|
D--------------------------|
A---77p5----------5-8888---|
D-------7-777-67-----------|

Bridge (The Part Where The Guitar Plays And Kurt Just Screams)


G------------------------------------------------------|
D---------------------------1/2-----------------1/2----|
A--------------------------17b17---------------17b17---|
D---16-16-16-16-16-16-16-16-----5-5-5-5-5-5-5-5--------|