Kurdt Cobain:

: Kurdt Cobain - "Paper Cuts"










[ne]FORMAT



MIDI







Paper Cuts

Kurdt Cobain



Intro:
G----------------------|
D----------------------|
A----------------------|
E-1-1-1-1-1-1-*-1-1-1--|
   PM---------|  PM--|

Verse:
Same as intro

Chorus:
"The lady I feel maternal love for..."
E only

"I say so..."
G---------------------------|
D---------------------------|
A---------------------------|
E--2-3-3-4-4-5-5-6-7-\-6-6--|
"Nirvana!"

G----------------|
D----------------|
A----------------|
E--5\4-4--7\6-6--|

Post Chorus Riff:

G--------------------------|
D--------------------------|
A--------------------------|
E--2--2--2--2--2--2--2--2--|
   PM--|    PM--|    PM