Robby Van Leeuwen:

: Robby Van Leeuwen - "Love Buzz"










[ne]FORMAT



MIDI







Love Buzz

Robby Van Leeuwen


Intro/Verse
                       tr
G---------------------7-8---|
D---8-----6-8-9-------------|
A---------------------------|
E---------------------------|

Riff # 2

G-----7-----------7-----------7---7-8-8/10-8-7-------|
D---8---8-6-8-6-8---8-6-8-6-8---8--------------8-6-8-|
A----------------------------------------------------|
E----------------------------------------------------|

G------------------------------------------------|
D------------------------------------------------|
A------------5---------------------5-------------|
E---1--4--6-----6--4--6---1--4--6-----6--4--6----|