Kurdt Cobain:

: Kurdt Cobain - "Sifting"










[ne]FORMAT



MIDI







Sifting

Kurdt Cobain


Siftings
    --------

G------------------------------------|
D------------------------------------|
A----------3----------------2\1--0---|
E--0-0-0---------0-0-0---------------|
       Afraid.......

Prechorus

G---------------------|
D---------------------|
A----------5------\---|
E--0-0-0--------------|
               Your eyes...

Chorus

G-------------------------------------|
D-------------------------------------|
A--5----5--5--5-5---------------------|
E---------------------5--5---5-3-0-0--|
                    Don't have nothing for you......
Solo

G------------|
D------------|
A------------|
E--0-0-0-0---|