Kurdt Cobain:

: Kurdt Cobain - "Mr. Moustache"










[ne]FORMAT



MIDI







Mr. Moustache

Kurdt Cobain


G-------------------------------------|
D-------------------------------------|
A-----2---------------1---------------|
E---3---3-2-1-0-1-2-3---3-2-1-0-1-2---|

Verse

G-------------------------|
D-------------------------|                         
A-------------------------|
E---5--5-----------5--5---|
    Fill me in on your new vision...

Chorus

G-------------------------------|
D-------------------------------|
A---3---5-----5-----------5-5---|
E-------------------------------|
            Easy in an easy chair...