Nightwish:

: Nightwish - "Dead Boy's Poem"










[ne]FORMAT



MIDI







Dead Boy's Poem

( "Wishmaster")

Nightwish


Normal tuning: EADGBE

Chords used in this piece of transcription:

F  133xxx
G  355xxx
A# x133xx
B  x244xx
C  x355xx
D  x577xx
D# x688xx

Verse :

During the verse play D as :
   D
e:------------------|
B:------------------|
G:-5-----5-----5----|
D:---5-----5--------|
A:-----3-----3---3--|
E:------------------|
Other chords as the same way

Listen where the guitar enters

D D C A#
"Born from silence ...."

D D C G
"Perfect concert my ..."

D D C A#
"So much to ..."

F A# (D) (D)
"If only my ..."

Chorus :

(A#)
G A# C
"Never sigh for ..."
G A# F
"It's already composed ..."
G A# C (D)
"Ever tought the ..."
D# A# C
"Everything I wish ..."

Solo :
(It's not too difficult but sounds cool)

GuitarI:
e:----------------------------------------------------------------|
B:-/11~-10-----10--11p10--8~\-------/11~-10----8~---8-------------|
G:---------10-------------------------------10--------10-7~\------|
D:----------------------------------------------------------------|
A:----------------------------------------------------------------|
E:----------------------------------------------------------------|

e:----------------------------------------------------------------|
B:-/11~-10-----10--11p10--8~---8~--8h10-11------------------------|
G:---------10------------------------------10~---8p7--5~\---------|
D:----------------------------------------------------------------|
A:----------------------------------------------------------------|
E:----------------------------------------------------------------|

GuitarII: Chorus

After the boy's sound :

G lot of times

Riff1
(at 4:32)
G C (A) G F G\

Riff2
(at 5:09)
2x  G  G G G  G G G  G G G  G
2x  C  C C C  C C C  C C C  B

Riff3
(at 5:30)
2x  G C B B

Continue with Riff2

Fade out with G