Nightwish:

: Nightwish - "Angels Fall First"










[ne]FORMAT



MIDI







Angels Fall First

( "Angels Fall First")

Nightwish

: Fredrik Olsson, fredrik.olsson@mbox329.swipnet.se



clean guitar(you never guessed that.. ;)

tuned in E (regular tuning)


Intro:
e:---------0------------------------0-----------------
B:-----------0--------------------1---1------------0--
G:-------0-----2----------0-----0-------0--------2---- 
D:-----2---------2------0-----2-----------2----2------  x6
A:---2----------------2-----3----------------0--------
E:-0----------------3---------------------------------


Intro solo:
e:---(12)--------------------------------------------------
B:---(12)--------------------------------------------------
G:--(12)-------------------5-4h5p4-2-0h2p0-----------------
D:---------2-------------------------------2--2-2-4-4-5-5--
A:---------2--------0-2-3----------------------------------
E:---------0--0-2-3----------------------------------------

e:---5-8-7h8p7p5-5-----5-5-7-7--
B:---0-------------8-8----------
G:-(0)--------------------------
D:------------------------------
A:------------------------------
E:------------------------------



Verse:

An angel face smiles to me...
e:---------0---------------0----------------3----------------2-3-2h3p2-----
B:-----------0---------------0----------------0-----------(3)----------3---
G:-------0-----2---------0-----2----------0-----0-------(2)--------------2-
D:-----2---------2-----2---------2------0---------0---(0)------------------
A:---2---------------2----------------2--------------0---------------------
E:-0---------------0----------------3--------------------------------------

e:---------0---------------0----------------3----------------2--------
B:-----------0---------------0----------------0------------0---0------
G:-------0-----2---------0-----2----------0-----0--------5-------5----
D:-----2---------2-----2---------2------0---------0----1--------------
A:---2---------------2----------------2--------------2-------------2--
E:-0---------------0----------------3---------------------------------

Farewell no words to say...
e:---------0---------------0----------------3----------------2-3-2h3p2-----
B:-----------0---------------0----------------0-----------(3)----------3---
G:-------0-----2---------0-----2----------0-----0-------(2)--------------2-
D:-----2---------2-----2---------2------0---------0---(0)------------------
A:---2---------------2----------------2--------------0---------------------
E:-0---------------0----------------3--------------------------------------

e:---------0---------------0----------------3----------------2--
B:-----------0---------------0----------------0------------0----
G:-------0-----2---------0-----2----------0-----0--------5------
D:-----2---------2-----2---------2------0---------0----1--------
A:---2---------------2----------------2--------------2----------
E:-0---------------0----------------3---------------------------

Flute part:

Am  Em  Am  G B


Chorus:

Needed elsewhere...
e:---------0--------------3-----0-------------0--------------0----------
B:-----------0--------------1-----1----------------------------1---0----
G:-------0-----2--------0-----0-----------0-7----7---------2-----2---0--
D:-----2---------2----2-----------------4----------4-----2--------------
A:---2--------------3----------------/5--------------0-0----------------
E:-0--------------------------------------------------------------------

Tears laid for them..
e:---------0--------------3-----0-------------0---------------0----------
B:-----------0--------------1-----1-----------------------------1---0----
G:-------0-----2--------0-----0-----------0-7----7----------2-----2---0--
D:-----2---------2----2-----------------4----------4------2--------------
A:---2--------------3----------------/5---------------0-0----------------
E:-0---------------------------------------------------------------------

..fear
e:---------1--------------0------------------3--------------0---------
B:-----------1--------------1---1-0------------0--------------1---0---
G:-------2-----2--------0-----0------------0-----0--------2-----2---0-
D:-----3---------3----2------------------0---------0----2-------------
A:---3--------------3------------------2--------------0---------------
E:-1---------------------------------3--------------------------------

e:---------1--------------3-----0------------3--------
B:-----------1--------------1-----1------------0------
G:-------2-----2--------0-----0------------0-----0----
D:-----3---------3----2------------------0---------0--
A:---3--------------3------------------2--------------
E:-1---------------------------------3----------------


Verse:

Not relieved by thougts of Shangri-La..
e:---------0---------------0----------------3----------------2-3-2h3p2-----
B:-----------0---------------0--------- -------0-----------(3)----------3--
G:-------0-----2---------0-----2----------0-----0-------(2)--------------2-
D:-----2---------2-----2---------2------0---------0---(0)------------------
A:---2---------------2----------------2--------------0---------------------
E:-0---------------0----------------3--------------------------------------

e:---------0---------------0----------------3----------------2--------
B:-----------0---------------0----------------0------------0---0------
G:-------0-----2---------0-----2----------0-----0--------5-------5----
D:-----2---------2-----2---------2------0---------0----1--------------
A:---2---------------2----------------2--------------2-------------2--
E:-0---------------0----------------3---------------------------------

I'll never understand the meaning of the right..
e:---------0---------------0----------------3----------------2-3-2h3p2-----
B:-----------0---------------0----------------0-----------(3)----------3---
G:-------0-----2---------0-----2----------0-----0-------(2)--------------2-
D:-----2---------2-----2---------2------0---------0---(0)------------------
A:---2---------------2----------------2--------------0---------------------
E:-0---------------0----------------3--------------------------------------

e:---------0---------------0----------------3----------------2--
B:-----------0---------------0----------------0------------0----
G:-------0-----2---------0-----2----------0-----0--------5------
D:-----2---------2-----2---------2------0---------0----1--------
A:---2---------------2----------------2--------------2----------
E:-0---------------0----------------3---------------------------


Flute part:

Am  Em  Am  G B


Chorus:

Needed elsewhere...
e:---------0--------------3-----0-------------0--------------0----------
B:-----------0--------------1-----1----------------------------1---0----
G:-------0-----2--------0-----0-----------0-7----7---------2-----2---0--
D:-----2---------2----2-----------------4----------4-----2--------------
A:---2--------------3----------------/5--------------0-0----------------
E:-0--------------------------------------------------------------------

Tears laid for them..
e:---------0--------------3-----0-------------0---------------0----------
B:-----------0--------------1-----1-----------------------------1---0----
G:-------0-----2--------0-----0-----------0-7----7----------2-----2---0--
D:-----2---------2----2-----------------4----------4------2--------------
A:---2--------------3----------------/5---------------0-0----------------
E:-0---------------------------------------------------------------------

..fear
e:---------1--------------0------------------3--------------0---------
B:-----------1--------------1---1-0------------0--------------1---0---
G:-------2-----2--------0-----0------------0-----0--------2-----2---0-
D:-----3---------3----2------------------0---------0----2-------------
A:---3--------------3------------------2--------------0---------------
E:-1---------------------------------3--------------------------------

e:---------1--------------3-----0---------------
B:-----------1--------------1-----1----------3--
G:-------2-----2--------0-----0------------0----
D:-----3---------3----2------------------0------
A:---3--------------3------------------2--------
E:-1---------------------------------3----------



more flutes..



solo:

guit1
e:-0--2-3-------------------------0--3-2h3p2p0--------------------------------------(12)-
B:--------0--0-1-3-1h3p1p0------(0)------------2-5--5-5--7-8-0--0-1-3-1h3p1p0------------
G:-------------------------0---(0)--------------------------------------------0-2--------
D:----------------------------(0)--------------------------------------------------------
A:---------------------------------------------------------------------------------------
E:---------------------------------------------------------------------------------------


flute solo..


guit2						1,2,3	           4
e:---------0------------------------0--------|---------        e:-0--   end here the last time..
B:-----------0--------------------1---1------|------0--        B:-1--
G:-------0-----2----------0-----0-------0----|----2----        G:-2--
D:-----2---------2------0-----2-----------2--|---2-----  x4    D:-2--
A:---2----------------2-----3----------------|-0-------        A:-0--
E:-0----------------3------------------------|---------        E:----
 


Sing me a song...

Am  Em  Dm  Am  x6

fade out...



Tablature explanation:
(12) = ghost note
 h = hammer on
 p = pull off
 / = slide