Muse:

: Muse - "Muscle Museum"










[ne]FORMAT



MIDI







Muscle Museum

Muse


Intro: (Play twice)

|--------------------------------------------------------------------------|
|--------------------------------------------------------------------------|
|--------------------------------------------------------------------------|
|--------------------------------------------------------------------------|
|-7-7-7-7-7-7-7-7-10-10-10-9-9-9-7-7-7-7-7-6\4/6-6-6-6-9-9-9-7-7-7---------|
|-5-5-5-5-5-5-5-5--9--9--9-7-7-7-5-5-5-5-5-4\2/4-4-4-4-7-7-7-5-5-5---------

First time only
|--------------------------------------------------------------------------|
|--------------------------------------------------------------------------|
|--------------------------------------------------------------------------|
|--------------------------------------------------------------------------|
|-6-6-6-6-6-4/6-7-7-7-7-10-10-10-11-11-11-11-11-12-12-12-12-12-12-12-12-12-|
|-4-4-4-4-4-2/4-5-5-5-5--9--9--9--9--9--9--9--9-10-10-10-10-10-10-10-10-10-|


Verse 1 (Wait 8 bars)

|-----------------|-----------------|-----------------|--------------------|
|-----------------|-----------------|-----------------|--------------------|
|-----2-2-----2-2-|-----2-2-----2-2-|-1-1-----1-1-----|-1-1-----1-1--------|
|-----------------|-----------------|-----3-3-----3-3-|-----3-3-----3-0----|
|-4-4-----4-4-----|-4-4-----4-4-----|-----------------|--------------------|
|-----------------|-----------------|-----------------|--------------------|


|-----------------|-------------------|-----------------|--------------------|
|-----------------|---------------------|--3-3---------0-0-|-3-3----------------|
|-----2-2-----2-2-|-----2-2-----2-2-|-----4-4---------|-----4-4------------|
|-----------------|---------------------|---------4-4-----|---------4-4-4-0----|
|-4-4-----4-4-----|-4-4-----4-4-----|-----------------|--------------------|
|-----------------|-----------------|-----------------|--------------------|


|-----------------|-----------------|-----------------|--------------------|
|-----------------|-----------------|-----------------|--------------------|
|-----2-2-----2-2-|-----2-2-----2-2-|-1-1-----1-1-----|-1-1-----1-1--------|
|-----------------|-----------------|-----3-3-----3-3-|-----3-3-----3-0----|
|-4-4-----4-4-----|-4-4-----4-4-----|-----------------|--------------------|
|-----------------|-----------------|-----------------|--------------------|


|-------------------|-------------------|--------5-2---2---5-2---2--|
|-------------------|-------------------|------------2---2-----2----|
|-----2-2-----2-2-|-----2-2-----2/4-|---------------------------|
|-------------------|-------------------|-4-4-4---------------------|
|-4-4-----4-4-----|-4-4-----4-4-----|-4-4-4---------------------|
|-------------------|-------------------|-2-2-2---------------------|


|------------------------|----------------------------------|
|--------6---6-6---6---6-|----------------------------------|
|----------6-----6---6---|----------------------------------|
|-6-6-6------------------|-4-4-4-4-4-4-4-4-5-5-5-5-5-5-5-5--|
|-4-4-4------------------|-5-5-5-5-5-5-5-5-5-5-5-5-5-5-5-5--|
|------------------------|----------------------------------|


|----------------------------------|
|----------------------------------|
|-7-7-7-7-7-7-7-7-7-7-7-7-7-7-7-7--|
|-6-6-6-6-6-6-6-6-7-7-7-7-7-7-7-7--|
|-5-5-5-5-5-5-5-5-5-5-5-5-5-5-5-5--|
|----------------------------------|


Chorus

|---2--------2-----|------------------|---2--------2-----|-----------------|
|-----2--------2---|---6--------6-----|-----2--------2---|---3-----3-2-----|
|-------2--------2-|-----6--------6---|-------2--------2-|-----4-------4---|
|------------------|-6-----6--6-----6-|------------------|-4-----4---------|
|-4--------4-------|-4--------4-------|-4--------4-------|-2---------------|
|-2--------2-------|------------------|-2--------2-------|-----------------|


|---2--------2-----|------------------|---2--------2-----|-----------------|
|-----2--------2---|---6--------6-----|-----2--------2---|---3-----3-2-----|
|-------2--------2-|-----6--------6---|-------2--------2-|-----4-------4---|
|------------------|-6-----6--6-----6-|------------------|-4-----4---------|
|-4--------4-------|-4--------4-------|-4--------4-------|-2---------------|
|-2--------2-------|------------------|-2--------2-------|-----------------|

Repeat intro. as required
|---------0-------|---------------|----------------------------------------|
|-----0-----0-----|-6-----6-------|----------------------------------------|
|---1---1-----1---|---6-----6-----|----------------------------------------|
|---------------2-|-----6-----6---|----------------------------------------|
|-----------------|-------------4-|-7-7-7....--------------------....11-12-|
|-0---------------|---------------|-5-5-5....--------------------....-9-10-|

Verse 2
|------------------|-----------------|-----------------|-------------------|
|------------------|-----------------|-----------------|-------------------|
|------------------|-------6b7r6b7r6-|-----------------|-------------------|
|------------------|---4-------------|-----------------|-------------------|
|------------------|-4---4-----------|-----------------|-------------------|
|------------------|-----------------|-----------------|-------------------|

(Note the second guitar)
|-----------------|-----------------|-----------------|--------------------|
|-----------------|-----------------|-----------------|--------------------|
|-----2-2-----2-2-|-----2-2-----2-2-|-1-1-----1-1-----|-1-1-----1-1--------|
|-----------------|-----------------|-----3-3-----3-3-|-----3-3-----3-0----|
|-4-4-----4-4-----|-4-4-----4-4-----|-----------------|--------------------|
|-----------------|-----------------|-----------------|--------------------|
| |
|-----------------|-----------------|-----------------|--------------------|
|-----------------|-----------------|-----------------|--------------------|
|-----------------|-----------------|-6h7p6h7p6h76----|--------------------|
|-----------------|-----------------|-----------------|--------------------|
|-----------------|-----------------|-----------------|--------------------|
|-----------------|-----------------|-----------------|--------------------|


|-----------------|-----------------|--------5-2---2---5-2---2--|
|-----------------|-----------------|------------2---2-----2----|
|-----2-2-----2-2-|-----2-2-----2/4-|---------------------------|
|-----------------|-----------------|-4-4-4---------------------|
|-4-4-----4-4-----|-4-4-----4-4-----|-4-4-4---------------------|
|-----------------|-----------------|-2-2-2---------------------|


|---------------------|----------------------------------|
|--------6---6b8r6----|----------------------------------|
|----------6-------6--|----------------------------------|
|-6-6-6---------------|-4-4-4-4-4-4-4-4-5-5-5-5-5-5-5-5--|
|-4-4-4---------------|-5-5-5-5-5-5-5-5-5-5-5-5-5-5-5-5--|
|---------------------|----------------------------------|


|----------------------------------|
|----------------------------------|
|-7-7-7-7-7-7-7-7-7-7-7-7-7-7-7-7--|
|-6-6-6-6-6-6-6-6-7-7-7-7-7-7-7-7--|
|-5-5-5-5-5-5-5-5-5-5-5-5-5-5-5-5--|
|----------------------------------|


Chorus

|---2--------2-----|------------------|---2--------2-----|-----------------|
|-----2--------2---|---6--------6-----|-----2--------2---|---3-----3-2-----|
|-------2--------2-|-----6--------6---|-------2--------2-|-----4-------4---|
|------------------|-6-----6--6-----6-|------------------|-4-----4---------|
|-4--------4-------|-4--------4-------|-4--------4-------|-2---------------|
|-2--------2-------|------------------|-2--------2-------|-----------------|


|---2--------2-----|------------------|---2--------2-----|-----------------|
|-----2--------2---|---6--------6-----|-----2--------2---|---3-----3-2-----|
|-------2--------2-|-----6--------6---|-------2--------2-|-----4-------4---|
|------------------|-6-----6--6-----6-|------------------|-4-----4---------|
|-4--------4-------|-4--------4-------|-4--------4-------|-2---------------|
|-2--------2-------|------------------|-2--------2-------|-----------------|

(Second guitar strikes again!!)
|-----------0-------|---------------|-----------------|---------2----------|
|-------0-----0-----|-6-----6-------|-----2-------2---|-----3-----3--------|
|-----1---1-----1---|---6-----6-----|---2---2---2---2-|---2---2-----2------|
|-----------------2-|-----6-----6---|-----------------|-0-------------0----|
|-------------------|-------------4-|-----------------|--------------------|
|---0---------------|---------------|-2-------0-------|--------------------|
|Solo |
|-12b14r12--------12b13r12--------21b22r21------------|-21--19--17 b 19----|
|-------------------|-----14b15r14--|-----------------|--------------------|
|-------------------|---------------|-----------------|--------------------|
|-------------------|---------------|-----------------|--------------------|
|-------------------|---------------|-----------------|--------------------|
|-------------------|---------------|-----------------|--------------------|


|-----------0-------|---------------|-----------------|---------2----------|
|-------0-----0-----|-6-----6-------|-----2-------2---|-----3-----3--------|
|-----1---1-----1---|---6-----6-----|---2---2---2---2-|---2---2-----2------|
|-----------------2-|-----6-----6---|-----------------|-0-------------0----|
|-------------------|-------------4-|-----------------|--------------------|
|---0---------------|---------------|-2-------0-------|--------------------|
| |
|-------------------|-------21b22r21b22--21-19-21-----|21--19---17--19-----|
|-----------16------|-14------------|-----------------|--------------------|
|-------------------|---------------|-----------------|--------------------|
|-------------------|---------------|-----------------|--------------------|
|-------------------|---------------|-----------------|--------------------|
|-------------------|---------------|-----------------|--------------------|


|---------0-------|---------------|---2--------------|---2-----------------|
|-----2-------2---|-6-----6-------|-----2------3-----|-----2------3--------|
|---2---2---2---2-|---6-----6-----|-------2------4---|-------2------4------|
|-----------------|-----6-----6---|----------------4-|----------------4----|
|-0---------------|-------------4-|----------2-------|----------2----------|
|-----------------|---------------|-2----------------|-2-------------------|
| |
|-19 b 21----19\9------------------------------------|---------------------|
|-------------------12b14-14b15r14b15--------14-12-14|--(14)\7--12 b 14--|
|----------------------------------------------------|---------------------|
|----------------------------------------------------|---------------------|
|----------------------------------------------------|---------------------|
|----------------------------------------------------|---------------------|


|---2--------------|---2--------------||
|-----2------3-----|-----2------3-----||
|-------2------4---|-------2------4---||
|----------------4-|----------------4-||
|----------2-------|----------2-------||
|-2----------------|-2----------------||
| ||
|------------------|------------------||
|-(14) r 13 b 14 |r 13 b 14r12b14||
|------------------|------------------||
|------------------|------------------||
|------------------|------------------||
|------------------|------------------||