Metallica: другие аккорды и тексты

Табулатура для бас-гитары: Metallica - "Creeping Death"

» Главная
» Аккорды
» Школа игры
» Софт для гитары
» Схемы примочек
» Магазин
» Продам
» Куплю
» Фотографии
» [ne]FORMAT
» Ссылки
» Форум
» Знакомства
» MIDI
» Контакты


»



Creeping Death

Metallica


    Creeping Death
written by Hetfield, Hammett and Ulrich
as performed on Ride the Lightning


    intro
||--------------------|----------|------------------------|-----------||
||o-------------------|----------|------------------------|----------o||
||o-----------------7-|----------|-----------------7--5---|----------o||
||---0--0--0--0--0----|----------|--0--0--0--0--0---------|-----------||
                                                                        
                                                                        
||-------------------|---------|----------------------|---------------||
||o------------------|---------|----------------------|--------------o||
||o----------------7-|---------|----------------7--5--|------5-------o||
||--0--0--0--0--0----|---------|-0--0--0--0--0--------|---------------||
                                                                        
                                                             play 4x->  
|-----------|--------|--------|-16--17--16\-||-------------------------|
|-----------|--------|--------|-------------||o------------------------|
|-----------|--------|--------|-------------||o------------------------|
|--5--3--2--|---0----|--------|-------------||---0--0--0--0--0--0--0--0|
                                                                        
                                                                        
|-------------------------||
|------------------------o||
|-------------2--3--2--0-o||
|-0--0--0--0--------------||
                                                                        
                    play 4x                                             
||---------------------|-------------------------||
||o--------------------|------------------------o||
||o--------------------|------------------------o||
||---0--0--3--0--0--3--|-0--0--2--2--2--2--2--2--||
                                                                        
                                                                        
||--------------------------|--------------------------||
||o-------------------------|-------------------------o||
||o-------------------------|-------------2--3--2--0--o||
||---0--0--0--0--0--0--0--0-|-0--0--0--0---------------||
                                                                       
                                                                       
Verses
||--------------------------|------------------------|
||o-------------------------|------------------------|
||o-------------------------|-------------2--3--2--0-|
||---0--0--0--0--0--0--0--0-|-0--0--0--0-------------|
                                                                        
                                                                        

|------------------|------------------------|
|------------------|------------------------|
|------------------|------------------------|
|-0--0--3--0--0--3-|-0--0--2--2--2--2--2--2-|
                                                                        

Chorus
|-------------------|------------------|------------------|-------------
|-------------------|------------------|------------------|-------------
|-------------------|-------------3--5-|-5--5--5--5--5--5-|-------------
|--0--0--0--0--0--0-|-0--0--0--0-------|------------------|-1--1--1--1--
                                                                        
                                                                        
------------|------------------|------------------|--------------------|
------------|------------------|------------------|--------------------|
------------|------------------|-------------3--5-|-5--5--5--5--5--5---|
--3--3--3\--|-0--0--0--0--0--0-|-0--0--0--0-------|--------------------|


|------------------|------------------|------------------|--------------
|------------------|------------------|------------------|--------------
|-5--5--5--5--8--8-|-7--7--7--7--7--7-|-7--7--7--7--8--8-|-5--5--5--5--5
|------------------|------------------|------------------|--------------
                                                                        
                                                                        
----|------------|------------------------|----------------------------|
----|------------|------------------------|----------------------------|
-5--|-5--2--4----|------------------------|-------------2--3--2--0-----|
----|----------2-|-0--0--0--0--0--0--0--0-|-0--0--0--0-----------------|
                                                                        
                                                                        
|------------------------|------------------------|--------------------|
|------------------------|------------------------|--------------------|
|------------------------|-------------2--3--2--0-|----7--------7------|
|-0--0--0--0--0--0--0--0-|-0--0--0--0-------------|-0-----0--0-----0---|
                                                                        
                                                                        
|------------------|---------------------|---------------||
|------------------|---------------------|--------------o||
|-7--5----7--5--7--|-5--7--5-----4----0--|-2--2--4------o||
|------------------|---------------------|----------2----||
                                                                        
                                                                        
Bridge
||---------------|------------|-----------------|---------------------||
||o--------------|------------|-----------------|--------------------o||
||o---7--7--7--7-|-8--8--8--5-|-7---------------|--------------------o||
||-0-------------|------------|------0--0--0--0-|-3--3--3--1--1-------||
                                                                        
                                                                        
Die...              play 4x
||---------------------|-------------|---------------|----------------||
||o--------------------|-------------|---------------|---------------o||
||o--------7--7--7--7--|-8--8--8--5--|-7-------------|---------------o||
||----0----------------|-------------|----0--0--0--0-|-3--3--3--1--1--||
                                                                        
                                                                        
|------------|-------------------|
|------------|-------------------|
|------------|-----------5--5\---|
|-0----------|--0--1--3----------|
                                                                        
                                                                        
||-----------------------------|------------------|---------------------|
||o-----------------------2----|------------------|--------------------3|
||o-----------------------2----|------------------|--------------------3|
||----0--0--0--0--0--0--0------|-0--0--0--0--3--2-|-0--0--0--0--0--0--0-|
                                                                        
                                                                        
|--------------------||
|-------------------o||
|-3--3--3--3--5--5--o||
|--------------------||