Metallica:

: Metallica - "Trapped Under Ice"










[ne]FORMAT



MIDI







Trapped Under Ice

Metallica


    Trapped Under Ice
by Hetfield, Ulrich and Hammett
as performed on Ride the Lightning
tab by Phil Boyle; phil@encycmet.com


1)
D------0-2------0-2--4-4-4-4------0-2-----0-2-0-2-3
A------0-2--------0--2-2-2-2------0-2-----0-2-0-2-3
E--0-0------0-0---------------0-0-----0-0----------
pm....      ...               ...     ...
intro


2)
D--9--11--12--14--17
A--7--9---10--12--15  twice
E-------------------
2nd guitar intro 


3)
D--------------------------------------------------5-4-2-4
A----------------3---------------4---------------3-3-2-0-2
E--2-2-2-2-2-2-2-0-2-2-2-2-2-2-2-0-2-2-2-2-2-2-2-0--------
verse


4)
D---------------------------------------------------------
A--6-7--6-7---2--6-7--6-7---7-7--4-5--4-5---5-5--6-7-8-7-7
E--4-5--4-5-0-0--4-5--4-5-0-5-5--2-3--2-3-0-3-3--4-5-6-5-5
chorus
"Freezing, can't move at all"


5)
D----------------------------------------------------------3-2------3-3-3--3-3-3
A--7-8-8--7-8-8--5-5--7-7-3------------------5-5-----3-2-0-----3-2--1-1-1--1-1-1
E--5-6-6--5-6-6--3-3--5-5-1-1-1-1----0-0-0-0-3-3-0-0----------------------------
bridge


6)
D--9-9-9--7-7-7--5-5-4------
A--7-7-7--5-5-5--3-3-2-----2
E----------------------3-2-0
Scream from my soul..


and close it out with the verse.