Metallica:

: Metallica - "For Whom the Bell Tolls"










[ne]FORMAT



MIDI







For Whom the Bell Tolls

Metallica


    For Whom the Bell Tolls
by Hetfield, Ulrich and Burton
as performed on Ride the Lightning
tab by Phil Boyle and Amriel Kissner; phil@encycmet.com


1)
e---------------------------------
B---------------------------------
G---------------7-6-5-4------7----
D------------------------5-4------
A--4-4--4-4--2-----------------5-4
E--2-2--2-2--0--------------------
  pm.......
intro (bass part for guitar)


2)
D----------------------------------4
A----5-4-3----5-4-3----5-4-3---5---2
E--0-3-2-1-0--3-2-1-0--3-2-1-0-3-0--
  pm................................


3)
D--2---5--*--2--5--5--2
A--2---5--*--2--5--3--0
E--0---3--*--0--3------
Make his fight...
*=mute


4)
e----------------------------
B--8-5-7----5-7--8-5-7----5-7
G---------7-------------7----
D----------------------------
A----------------------------
E----------------------------
intro lead played as tripplets (groups of three)


5)
D-----------------------------3--------------------------------3------
A--------5--------7--------5--1--4--------5--------7--------5--1-4-3-2
E--0-0-0-3--0-0-0-5--0-0-0-3-----2--0-0-0-3--0-0-0-5--0-0-0-3----2-1-0
pm......   ......   ......
For whom the bell tolls...


6)
e---------------------------------
B---------------------------------
G--12-9-11----9-------------------
D----------12---11-12-9-11----9---
A--------------------------12---10
E---------------------------------
you play this a couple times, the 3rd time you play the same thing but
instead of ending on the G (A-10) you end on on B (B-12)


7)
D-------------------
A--4-4-2---4-4-5-5-2
E--2-2-0---2-2-3-3-0
end