by Hetfield, Ulrich, Burton, and Hammett:

: by Hetfield, Ulrich, Burton, and Hammett - "Damage, Inc."










[ne]FORMAT



MIDI







Damage, Inc.

by Hetfield, Ulrich, Burton, and Hammett


as performed Master of Puppets
tab by Paul Halvorson, Wayne Hanvey and Phil Boyle; phil@encycmet.com


1)
e------------------------------
B------------------------------
G------------------------------
D--2--2--2-----2-----3--3--3--3
A--2--2--2-----2-----3--3--3--3
E--0--0--0-----0-----1--1--1--1
intro part 1


2)
D-----------------------------------7/8---7/8--7
A-----------------------------------7/8---7/8--7
E--0-0-0-0-0-0-0-0-0-0-0-0-0-0-0-0--5/6-x-5/6--5
  pm..............................      .
intro part 2


3)
D-----------------------------------5\4---5\4--5
A-----------------------------------5\4---5\4--5
E--2-2-2-2-2-2-2-2-2-2-2-2-2-2-2-2--3\2-x-3\2--3
  pm..............................      .
intro part 3


4)
D--4--5--7--5--4-4-4-4-4-4-4-4-4-4-4-4-4-4-4-4
A--2--5--7--5--4-4-4-4-4-4-4-4-4-4-4-4-4-4-4-4
E-----3--5--3--2-2-2-2-2-2-2-2-2-2-2-2-2-2-2-2
              pm..............................
Blood will follow blood


5)
D---------------------------------------------------------  ----------------
A--8\5---------------8\5---------------8\5---------------8  -2-2-2-2-0-0-0-0
E--6\3-0-0-0--0-0-0--6\3-0-0-0--0-0-0--6\3-0-0-0--0-0-0--6  ----------------
      pm...........      ............      ............      ...............
Dealing out the agony...                                    right before riff 4


6a)
D--------------------------------  three
A------7---8---5---7---8---7----8  times
E--0-0---0---0---0---0---0---0--6  then
  pm..   .   .   .   .   .   .

6b)
D-------------------------------
A------7---8---5---7---3---5---2
E--0-0---0---0---0---0---0---0--
  pm..   .   .   .   .   .   .
pre-solo

under the solo is all open E until 3:58 when it changes to F# and then riff 2
_____________________________________________________
Solo (by Wayne Hanvey)

e-15p12-12-15-15p14-12-15-15p14-12-15-15p14-12-12-15p14-12-15-15p14-
b-------------------------------------------------------------------
g-------------------------------------------------------------------
d-------------------------------------------------------------------
a-------------------------------------------------------------------
e-------------------------------------------------------------------


e-12-15-15p14-12-15-15p14-12-15-15-15-15-15-15-14p12-15-15-15-15-15
b------------------------------------------------------------------
g------------------------------------------------------------------
d------------------------------------------------------------------
a------------------------------------------------------------------
e------------------------------------------------------------------

e-15p14p12-12-15-14-12-12-15-14-12-15-15b----------14-17-15-14-15p14
b-----------------------------------------------15------------------
g-------------------------------------------/16---------------------
d-------------------------------------------------------------------
a-------------------------------------------------------------------
e-------------------------------------------------------------------

e-15p14----14------------------------------------------------------------
b-------17----17\---15s14--12s10h12--10\9-10p9-------10-10p9------10-10p9
g----------------------------------------------11--9----------11-9-------
d------------------------------------------------------------------------
a------------------------------------------------------------------------
e------------------------------------------------------------------------

e---------------------------------------------------------------9-9------
b------10-10p9------10-10p9-----12p10p9----12-12pp10p9----12p10----------
g-11-9---------11-9---------9-11--------11-------------11-----------11-11
d------------------------------------------------------------------------
a------------------------------------------------------------------------
e------------------------------------------------------------------------

e-9-9-----------------------------------------------9--9----12b---9-9h12-12p9
b-----12p10-------12-12p10-9----12-12p10-9----12p10--------------------------
g-----------11-11------------11------------11------------11------------------
d----------------------------------------------------------------------------
a----------------------------------------------------------------------------
e----------------------------------------------------------------------------

e-9-12p9-9-9p12----9-12p9-----9-12p9------------------------------------
b---------------12b-------12b--------10p7-0-11p8-0-0-12p9--0-0-13p10-0-0
g-----------------------------------------------------------------------
d-----------------------------------------------------------------------
a-----------------------------------------------------------------------
e-----------------------------------------------------------------------

                                 (all full bends here)
e----------------------------------------------------------------12-12-12-12-12
b-14p-11-0-0-15p12-0-0-16p13-0-0-17p14-0-0--15-15-15-15-15p12-13---------------
g------------------------------------------------------------------------------
d------------------------------------------------------------------------------
a------------------------------------------------------------------------------
e------------------------------------------------------------------------------

                                                      ~~ 
e-----14-15-17-17-17b---17bp14--15----14-15--17-15-14-15p14-15p14----14
b-/15-------------------------------------------------------------17---
g----------------------------------------------------------------------
d----------------------------------------------------------------------
a----------------------------------------------------------------------
e----------------------------------------------------------------------

e----14--------------17------------------------------------------------------
b-17----17-14--15p14----15-------------------14-17p14----14-17p14----14-17p14
g--------------------------16----14--14--16b----------16----------16---------
d----------------------------------------------------------------------------
a----------------------------------------------------------------------------
e----------------------------------------------------------------------------

                      (all full bends)
e--------------------------------------------15-15-15-15-15-15-15--12-15-15-15
b----14--17p14-17b-----15-15-15-15-15-----------------------------------------
g-16-------------------14-14-14-14-14-----------------------------------------
d-----------------------------------------------------------------------------
a-----------------------------------------------------------------------------
e-----------------------------------------------------------------------------

e-15-15-15p12-12-15-15-15-12-15-15-12-15-15b-------10-10-12-12s14-14-15-15
b--------------------------------------------10s12------------------------
g-------------------------------------------------------------------------
d-------------------------------------------------------------------------
a-------------------------------------------------------------------------
e-------------------------------------------------------------------------


e-15s17--15-15-17-17s19-19-19-17-17-17-19-19s20-20-20-19-19-19-20-20s-22-
b------------------------------------------------------------------------
g------------------------------------------------------------------------
d------------------------------------------------------------------------
a------------------------------------------------------------------------
e------------------------------------------------------------------------


e-22-20-19-22-20-18-18-21-19-17-17s20-18-16-16s19-17-15-15s18-16-14-14s17-
b-------------------------------------------------------------------------
g-------------------------------------------------------------------------
d-------------------------------------------------------------------------
a-------------------------------------------------------------------------
e-------------------------------------------------------------------------

e-15-13-13s16p14p12s15p13p12s14p12p10------------------------
b-------------------------------------12t10p7-12t10p7-13t10p7
g------------------------------------------------------------
d------------------------------------------------------------
a------------------------------------------------------------
e------------------------------------------------------------

e---------------------------------------------------------------------
b--13t10p7-14t10p7-14t10p7-15t10p7-15t10p7-16t10p7-16t10p7-16t10p7----
g---------------------------------------------------------------------
d---------------------------------------------------------------------
a---------------------------------------------------------------------
e---------------------------------------------------------------------

e-------------------------------------
b--16t10p7-16t10p7-16t10p7-16t10p7-16s
g-------------------------------------
d-------------------------------------
a-------------------------------------
e-------------------------------------