written by Burton, Hetfield and Ulrich:

: written by Burton, Hetfield and Ulrich - "Orion"










[ne]FORMAT



MIDI







Orion

written by Burton, Hetfield and Ulrich


as performed on Master of Puppets
tab by Phil Boyle; phil@encycmet.com


Bass intro
1)
D--5-----5-----5---5-----5-----4-----4-----4-----4-----5
A--7-----7-----7---7-----7-----5-----5-----6-----6-----7
E----0-0---0-0---0---0-0---0-0---7-7---7-7---7-7---7-7--
    pm..   ...   .   ...   ...   ...   ...   ...   ...
guitar (after intro 0:56)  (there's no lyrics, so I have to use time) 


2)
D----------7---------9---------10----------------------10-----9-----7
A--7-7-7-7---7-7-7-7---7-7-7-7----7-7-7-7-8-7--7-7-7-7----7's---7's--
E--------------------------------------------------------------------
(1:41)


3)
D------2---------4---------5----------------------------5-----4-----2
A------0---------2---------3----------------------------3-----2-----0
E--0-0---0-0-0-0---0-0-0-0---0-0-0-0-0-1-1-1-0--0-0-0-0---0's---0's--
  pm
(2:12)  
(on the last few riffs, I used 0's because I didn't want to write 0 4times)


4)
D--4-4-4-----------4-4-4---------2-2-2---------------------2
A--2-2-2-2-2-2-2-0-2-2-2-2-2-2-2-0-0-0-0-0-0---4-4-4-------0
E--------------0---------------0-------------0-2-2-2-2-2-2--
        pm....           .....         .......       .....
(3:28)


5)
D--4-4-4-4--2-2-2-2----------
A--2-2-2-2--0-0-0-0-4-4-3-3-2
E-------------------2-2-1-1-0
    pm.......................
(3:50)
-------------------------------------------------------------------------
(bass fill here)
-------------------------------------------------------------------------


6)full full      full              full
   ^  ^V       ^  ^V             ^  ^V      
e---------------------------------------------------------
B---------------------------------------------------------
G--9--9-6/9\6--9--9-6/9/6--------9--9-6/9\6---------------
D--9--9-7/9\7--9--9-7/9\7-7-7-7--9--9-7/9\7-7-7-7-6-6-7-9-
A-------------------------9-9-9-------------9-9-9-7-7/9/11
E---------------------------------------------------------
(4:17)


7)                                    full
                                   ^V^^V
e-----------------------------------------------------------
B-----------------------------------------------------------
G----------------------------------9--9-6/9\6---------------
D----------7-9h11p9--7-9-11-7---7--9--9-7/9\7-7-7-7-6-6-7-9-
A--9~~~7-9--------------------9-9-------------9-9-9-7-7/9/11
E-----------------------------------------------------------
(4:53)

8)                                             full
                                                ^
e------------------------------------------- t -------------
B------------------------------------------- w -------------
G--9-9-9-9--9-9-9-9-9-6-6-7-7-6----------6-6 i -4-2~~----2--
D-------------------------------9-7-6--7---7 c ------2-2---4
A------------------------------------------- e -------------
E-------------------------------------------   -------------
(5:12)


9)                                           
e-------------------------------------------|---------------------------------------
B-------------------------------------------|---------------------------------------
G-------6---6----6-9-6-7--7-----------------|-----6---6----6-9-6-7--7---------------
D-----7---7----7------------9-6------6h9p6--|7--7---7----7------------9-6------6h9p6
A--9----------------------------7--7--------|-----------------------------7--7------
E-------------------------------------------|---------------------------------------
(5:39)                                   here is where the repeat happens without
                                         the F# (a-9)


10)
e----------------------------
B----------------------------
G-----6h9-6~~7h9-7~~--7-9----
D--7----------------------6~~
A----------------------------
E----------------------------
(5:58)


11)
D----2---6  -----0-4  -2---5------5---2
A--4-0-2-4  -2-5-0-2  -0-2-3------3-2-0
E--2---0--  -0-3----  ---0----0-0---0--
                            pm
(6:17)      (6:34)    (6:54)


12)
D--4-4-4-----------4-4-4---------2-2-2---------------------2
A--2-2-2-2-2-2-2-0-2-2-2-2-2-2-2-0-0-0-0-0-0---4-4-4-------0
E--------------0---------------0-------------0-2-2-2-2-2-2--
        pm....           .....         .......       .....
(7:00)

at 7:30 it goes back to riff ll part 3


R.I.P CLIFF BURTON