Metallica: другие аккорды и тексты

Табулатура для бас-гитары: Metallica - "Disposable Heroes"

» Главная
» Аккорды
» Школа игры
» Софт для гитары
» Схемы примочек
» Магазин
» Продам
» Куплю
» Фотографии
» [ne]FORMAT
» Ссылки
» Форум
» Знакомства
» MIDI
» Контакты


» http://eksno.ru/reshetki-vent купить пластмассовые вентиляционные решетки.



Disposable Heroes

Metallica


from the album: Master of Puppets
Bass Tab
172 bpm
(6/4)

||----------------------|---------------------|---------------------|
||o---------------------|---------------------|---------------------|
||o---------------------|---------------------|---------------------|
||--0-0-0-0-0-0-2--3--2-|-0-0-0-0-0-0-3--5--2-|-0-0-0-0-0-0-2--3--2-|

 _______________________         ___________________
|1. & 2.                        |3.
|----------------------||       |------------------------||
|---------------------o||       |-----------------------o||
|-------------------7-o||       |-----------------------o||
|-0-0-0-0-0-0-0-0-0----||       |-0-0-0-0-0-0-0-0-0-0----||

 _______________________
|4.
|------------------------||
|-----------------------o||
|-----------------------o||
|-0-0-0-0-0-0-0-0-0-0----||


||---------------||----------|-----------|----------|------9--9-|-9--------|
||---------------||----r-----|-----r-----|----r-----|-----------|----------|
||---------------||----------|-----------|----------|-----------|----------|
||-(0)-----------||----------|-----------|----------|-----------|----------|


|------------|---------|----------|
|------------|----%----|----------|
|------------|---------|----------|
|-0--0-------|---------|----------|


                  (play 24 times)
||------------------------------||
||o----------------------------o||
||o----------------------------o||
||--0--0-0-0--0--0--0--0-0-0-0--||


                      (play 6 times)
||---------------------------------||
||o-------------------------------o||
||o-------------------------------o||
||--4--4-4-4-4-4-4-4--4-4-4-4-4-4--||

||-----------------|-----------------||
||-----------------|-----------------||
||-0------0--------|-----------------||
||-----------------|--3--------------||

                   (play 8 times)
||------------------------------||
||o----------------------------o||
||o----------------------------o||
||--0--0-0-0--0--0--0--0-0-0-0--||

1st, 2nd, 3rd verses
||-----------------------------|-----------------------------|
||o----------------------------|-----------------------------|
||o----------------------------|-----------------------------|
||--0--0-0-0--0--0--0--0-0-0-0-|-0---0-0-0--0--0--0--0-0-0-0-|

|----------------------------|----------------------------|
|----------------------------|----------------------------|
|----------------------------|----------------------------|
|-3--3-3-3--3--3--3--3-3-3-3-|-2--2-2-2--2--2--2--2-2-2-2-|

|----------------------------|----------------------------|
|----------------------------|----------------------------|
|----------------------------|----------------------------|
|-0--0-0-0--0--0--0--0-0-0-0-|-0--0-0-0--0--0--0--0-0-0-0-|

|----------------------------|----------------------------|
|----------------------------|----------------------------|
|----------------------------|----------------------------|
|-3--3-3-3--3--3--3--3-3-3-3-|-7--7-7-7--7--7--7--7-7-7-7-|

|----------------------------|----------------------------|
|----------------------------|----------------------------|
|----------------------------|----------------------------|
|-0--0-0-0--0--0--0--0-0-0-0-|-0--0-0-0--0--0--0--0-0-0-0-|

|----------------------------|----------------------------|
|----------------------------|----------------------------|
|----------------------------|----------------------------|
|-3--3-3-3--3--3--3--3-3-3-3-|-2--2-2-2--2--2--2--2-2-2-2-|

|----------------------------|----------------------------|
|----------------------------|----------------------------|
|----------------------------|----------------------------|
|-0--0-0-0--0--0--0--0-0-0-0-|-0--0-0-0--0--0--0--0-0-0-0-|

|----------------------------|----------------------------|
|----------------------------|----------------------------|
|----------------------------|----------------------------|
|-0--0-0-0--0--0--0--0-0-0-0-|-0--0-0-0--0--0--0--0-0-0-0-|

|-------------------------------|-------------------------------|
|-------------------------------|-------------------------------|
|-4--4-4-4-4-4-4-4--4-4-4-4-4-4-|-4--4-4-4-4-4-4-4--4-4-4-4-4-4-|
|-------------------------------|-------------------------------|

|-----------------------|-----------------------|
|-----------------------|-----------------------|
|-4--4-4-4-4-4-4-4--4-4-|-2--2-2-2-2-2-2-2--2-2-|
|-----------------------|-----------------------|

|-------------------------------|---------|-----------------------|
|-------------------------------|----%----|-----------------------|
|-4--4-4-4-4-4-4-4--4-4-4-4-4-4-|---------|-4--4-4-4-4-4-4-4--4-4-|
|-------------------------------|---------|-----------------------|

|-----------------------|-------------------------------|---------|
|-----------------------|-------------------------------|----%----|
|-2--2-2-2-2-2-2-2--2-2-|-4--4-4-4-4-4-4-4--4-4-4-4-4-4-|---------|
|-----------------------|-------------------------------|---------|

|-----------------------|-----------------------|
|-----------------------|-----------------------|
|-4--4-4-4-4-4-4-4--4-4-|-2--2-2-2-2-2-2-2--2-2-|
|-----------------------|-----------------------|

|-------------------------------|-------------------------------|
|-------------------------------|-------------------------------|
|-4--4-4-4-4-4-4-4--4-4-4-4-4-4-|-4--4-4-4-4-4-4-4--4-4-4-4-4-4-|
|-------------------------------|-------------------------------|

|-----------------------|-----------------------||
|-----------------------|-----------------------||
|-4--4-4-4-4-4-4-4--4-4-|-2--2-2-2-2-2-2-2--2-2-||
|-----------------------|-----------------------||


||--------------------------------|---------|-----------------------|
||o-------------------------------|----%----|-----------------------|
||o-2--2-2-2-2-2-2-2--2-2-2-2-2-2-|---------|-2--2-2-2-2-2-2-2--2-2-|
||--------------------------------|---------|-----------------------|

|------------------------||
|-----------------------o||
|-0--0-0-0-0-0-0-0--0-0-o||
|------------------------||

                   /play this bar 3rd time only
|----------------|----------------|-------------------------|
|----------------|----------------|-------------------------|
|-2--1--2--3--2--|-4--3--4--5--6--|-------------------------|
|----------------|----------------|-0--0-0-0--0--0--0--0--3-|

|-----------------|------------------|-------------------|
|-----------------|------------------|-------------------|
|-----------------|------------------|-------------------|
|-(3)--------6--2-|-(2)---------5--1-|-(1)------------3--|


  "Back to the front....            you will do"
||--------------------------|--------------------|
||o-------------------------|--------------------|
||o-------------------------|--------------------|
||--0--0-0-0--0--0--0--0--3-|-(3)-----------6--2-|

|------------------|---------------||
|------------------|--------------o||
|------------------|--------------o||
|-(2)---------5--1-|-(1)-------3---||

||--------------------------|------------------|
||o-------------------------|------------------|
||o-------------------------|------------------|
||--0--0-0-0--0--0--0--0--3-|-(3)---------6--2-|    (1st time go back
                                                        to 2nd verse)
|----------------|--------------|----------------------|----------||
|----------------|--------------|----------------------|---------o||
|----------------|--------------|----------------------|---------o||
|-(2)-------5--1-|-(1)-------3--|-0--0-0-0--0--0--0--0-|-0--------||

|----------------------||
|----------------------||
|----------------------||
|-0--0-0-0--0--0--0--0-||

                                          (play 7 times)
||-----------------|---------|---------|---------------||
||o----------------|----%----|----%----|--------------o||
||o----------7-----|---------|---------|----------7---o||
||--0--0-0-0---0-0-|---------|---------|-0--0-0-0---0--||


||----------------|--------------|-----------|-----------|----------------|
||o---------------|--------------|-----------|-----------|----------------|
||o-3--3-3-3--3-3-|-3--3-3-3-5---|-3---------|-(3)-------|----------7-----|
||----------------|--------------|-----------|-----------|-0--0-0-0---0-0-|

|----------------|---------|-----------------||
|----------------|----%----|----------------o||
|----------7-----|---------|----------7-----o||
|-0--0-0-0---0-0-|---------|-0--0-0-0---0-0--||

||-----------------|--------------------||
||o----------------|-------------------o||
||o-------10-7-----|-10-7-----10-7-----o||
||-8--8-8------8-8-|------8-8------8-8--||

                                          (play 6 times)
||-----------------|---------|---------|---------------||
||o----------------|----%----|----%----|--------------o||
||o----------7-----|---------|---------|----------7---o||
||--0--0-0-0---0-0-|---------|---------|-0--0-0-0---0--||


|----------------------|---------|---------|---------|---------||
|----------------------|---------|----r----|----r----|----r----||
|----------------------|---------|---------|---------|---------||
|-0--0-0-0--0--0--0--0-|-0-------|---------|---------|---------||

                      (play 6 times)
||---------------------------------||
||o-------------------------------o||
||o-4--4-4-4-4-4-4-4--4-4-4-4-4-4-o||
||---------------------------------||

||-------------|------------||
||-------------|------------||
||-0-----0-----|------------||
||-------------|-3----------||

|-------------|-------------------------|
|-------------|-------------------------|
|-------------|-------------------------|
|-(1)-----3---|-0--0-0-0--0--0--0--0--3-|

||----------------|------------------|-------------|
||o---------------|------------------|-------------|
||o---------------|------------------|-------------|
||--(3)------6--2-|-(2)---------5--1-|-(1)------3--|
 _________________
|1. 2. 3.
|--------------------------||
|-------------------------o||
|-------------------------o||
|-0--0-0-0--0--0--0--0--3--||
 _________________
|4.
|----------------------||
|----------------------||
|----------------------||
|-0--0-0-0--0--0--0--0-||

                      (play 4 times)
||---------------------------------||
||o-------------------------------o||
||o-4--4-4-4-4-4-4-4--4-4-4-4-4-4-o||
||---------------------------------||
 ________________
|1.
|---------------------------||
|--------------------------o||
|-0--10--9--0--9--7--------o||
|--------------------10--9--||
 ________________
|2.
|--------------------------|-------------------------------|-----|-----|
|--------------------------|-------------------------------|--%--|--%--|
|-0--10--9--0--9--7--------|-5--5-5-5-5-5-5-5--5-5-5-5-5-5-|-----|-----|
|--------------------10--9-|-------------------------------|-----|-----|

|---------------------------||
|--------------------------o||
|-0--10--9--0--9--7--------o||
|--------------------10--9--||
 ________________
|3.
|-------------|-----------|------------|-6---------|--------|----------||
|-------------|-----------|-------6----|-------6---|--------|---------o||
|-0----0------|-----------|-4----------|-----------|-4------|-(4)-----o||
|-------------|-3---------|------------|-----------|--------|----------||
 ________________
|4.
|-----------|---------|-------------||
|-----------|---------|-------------||
|-0----0----|---------|-4----(4)\---||
|-----------|-3-------|----------\--||