Metallica:

: Metallica - "Cure"










[ne]FORMAT



MIDI







Cure

( "Load")

Metallica

: Hetfield & Ulrich

tune all guitars down 1/2 step
1)
Db--------------0------0
Ab--2----2--0-1----0-1--
Eb--0-3~~0--------------
The man takes another bullet


2)
Db------------3-3-3-3-3-3-3
Ab--3-3-3-3-3-1-1-1-1-1-1-1
Eb--1-1-1-1-1-1-1-1-1-1-1-1
Uncross your arms


3)
Db--3--------------------------
Ab--3--0-1---3----1---1-----3--
Eb--1------0-1-0----3---3-0-1-0
I do believe


4)
Db----------------         -9-8-7------
Ab----2--2-x-x-x-2 3 times -7-6-5-9-8-7
Eb--3~0--0-x-x-x-0         -------7-6-5
After the "I do believe" part.  Also the during the "betting on the cure"


5)
Db--2-------2-----9-8-7------
Ab--2-2-----2-----7-6-5-9-8-7
Eb--0-3~~0--0---0-------7-6-5


6)
Db---------------------------------2
Ab----7-----7--------7-----7-------2
Eb--0---6-5---6-5--0---6-5---6-5-3-0


7)
Db-------------------
Ab----5---8-7--8~~7-8
Eb--0-3-0-6-5--6~~5-6
light pm.............
Yeah precious cure


8)                                      ^
Db-------------------------------------------
Ab----------7---------5---------4------------
Eb--0-3-5-6---0-3-5-6---0-3-5-6---0-3-5-6-5-0