Metallica:

: Metallica - "Until it Sleeps"










[ne]FORMAT



MIDI







Until it Sleeps

( "Load")

Metallica

: Hetfield, Ulrich, Hammett

tune guitars to Eb
1)
eb------0-------------------0
Bb---------3--1--0----------1
Gb------------------2--0----2
Db----2--------------------2-
Ab--0---------------------0--
Eb---------------------------
     undistorted
"Where do I take this pain of mine"


2a) James
Db-----------------------------
Ab------7----7-7----5---------3
Eb------5----5-5----3---------1

2b) Kirk
Gb------5----7-5----4--5--4---2-3-2
Db------7----7-7----5--5--5---3-3-3  guitar 2
Ab--0-0----0------0---------0------
Eb---------------------------------
So tear me open pour me out


3)
Db------5---7--5---4-4-9------5----7-5---4-4-9
Ab------7---7--7---5-6-7------7----7-7---5-6-7
Eb--0-0---0------0--------0-0----0-----0------
It holds you so hold me.......................


4)
eb------0-------------------
Bb---------3--1------------1
Gb-----------------0----2--2
Db----2------------0----3--2
Ab--0--------------2----3--0
Eb---------------3----1-----
clean after the chorus


____________________________________________________________-
Solo:
1)
eb---17-17-17-19-19-19-17-17-20-20-20-19-19-19-17-17
Bb---17-17-17-17-17-17-17-17-17-17-17-17-17-17-17-17
Gb--------------------------------------------------
Db--------------------------------------------------
Ab--------------------------------------------------
Eb--------------------------------------------------


2)
eb---17-17--17-15-17--17-15-12----12-15-12
Bb----------17-15-17--17-15-12-14-12-15-12
Gb-----------------------------14---------
Db----------------------------------------
Ab----------------------------------------
Eb----------------------------------------

bar 1 again

bar 2 again

                                               
eb-------------------------------------------------
Bb-------------------------------------------------
Gb------------------14--14-------------------12--12
Db----------12--14-------------------12--14--------
Ab--12--15-------------------12--15----------------
Eb-------------------------------------------------
                                                       
eb----------------------------------12--14--15--17--17
Bb--------------------------12--15--------------------
Gb------------------12--14----------------------------
Db----------12--14------------------------------------
Ab--12--15--------------------------------------------
Eb----------------------------------------------------