Metallica: другие аккорды и тексты

Табулатура для бас-гитары: Metallica - "Until it Sleeps"

» Главная
» Аккорды
» Школа игры
» Софт для гитары
» Схемы примочек
» Магазин
» Продам
» Куплю
» Фотографии
» [ne]FORMAT
» Ссылки
» Форум
» Знакомства
» MIDI
» Контакты


» заказ цветов доставка букетов



Until it Sleeps

(альбом "Load")

Metallica

слова: Hetfield and Ulrich

This was recorded on a fretless bass
Gb-------------------------
Db----7~~/10-9---7~~/10----
Ab--7----------7--------8-7
Eb-------------------------
intro and verse

Gb-----------------------------------
Db-----------------------------------
Ab-----------------------------------
Eb--3-3-0-5-5-5-5-5-5-5-3-3-3-3-1-1-1
So tear me open

Gb-----------------------------------
Db-----------------------------------
Ab-----------------------------------
Eb--3-5-5-5-5-5-5-5-3-3-3-3-8-8-7-5-5
These things inside

Gb-----------------------------------
Db-----------------------------------
Ab--7-5-7-5---5-6-7-------------5-6-7
Eb----------0-------0-0-0-0-0-0------
It grips you