Metallica:

: Metallica - "2 X 4"










[ne]FORMAT



MIDI







2 X 4

( "Load")

Metallica

: Hetfield, Ulrich & Hammett

Tune all guitars down 1/2 step
drum intro 
1)
Db--------------------------------------
Ab--------------------------------------  repeat
Eb--0-3-5-6--0-3-5-6----0-3-5-0--0-3-5-0


2)
Db-----------------------------
Ab------------7-----7-----7----  repeat
Eb--0-3p0-5-6---5-6---5-6---6-5


3)
Db---------------------------
Ab------------7--------------  repeat
Eb--0-3p0-5-6----6-5-3--6-5-3
Yeah, I'm a gonna make you...


4)
Db-------------------
Ab-------------------
Eb--0-3-5-6~~-0-3-5-0
Far...........too far


5)
Db--2--5--7--5
Ab--2--5--7--5
Eb--0--3--5--3
I can't hear ya...
(also solo riff)