Metallica: другие аккорды и тексты

Табулатура для ударных: Metallica - "2X4 "

» Главная
» Аккорды
» Школа игры
» Софт для гитары
» Схемы примочек
» Магазин
» Продам
» Куплю
» Фотографии
» [ne]FORMAT
» Ссылки
» Форум
» Знакомства
» MIDI
» Контакты


»



2X4

(альбом "Load")

Metallica

слова: Hetfield/Ulrich/Hammett

(INTRO ROLL)
FT:------------------------------------2-2--------:
T2:-----------------------2-2------------------3--:
T1:----------2-2------------------------------3---:
SN:--2-2-2--2-----2-2-2--2-----2-2-2--2------3----: moderate

(BEAT 1)
RC:--3----:      (BURST)
CC:----3--:      CC:-------3--:
BA:--3----:      BA:-----2----:
SN:----3--: x13  SN:--2-2--3--: (BEAT 1 x2) moderate

(ROLL 1)
RC:---------------------3------:
CC:-------------------------3--:
T2:----------2-2---------------:
T1:------2--2---2--------------:
BA:---------------------3-3----:
SN:---2-2--2--2--2-2-2------3--: moderate

(BEAT 2)
CC:-----------------------------2-----2-----2--:
BA:--2-2-----2-2-----2-2-----2-2---2-2---2-2---:
OH:--2--2----2--2----2--2----2-----2-----2-----:
SN:-----2-------2-------2-------2-----2-----2--: moderate

(ROLL 2)
RC:------------------3--:
FT:---------------------:
T2:--------------2-2----:
T1:----------2-2--------:
BA:------------------3--:
SN:--2--2-2-2-----------: moderate

(BEAT 3 - VERSE 1)
BA:--2-2---:
OH:--2--2--:
SN:-----2--: ["Yeah, I'm a gonna make you..."] moderate