Metallica:

: Metallica - "The Outlaw Torn"










[ne]FORMAT



MIDI







The Outlaw Torn

( "Load")

Metallica

: Hetfield & Ulrich

tune all guitars down 1/2 step
1)
intro (fade in)
Db--x-3-3--3-3
Ab--x-2-2--2-2
Eb--x-0-0--0-0
  3rdfret wah


2)
Gb----------------------5-4-----5-4----4-5-4--
Db--------------------------5-------5--------5
Ab--5h7-7-5h7-5h7-5h7-7-----------------------
Eb--0-0-0-0-0-0-0-0-0-0----------------------- repeat


3a)                      3b)
Db--4~~-7/9               --4~~2-4
Ab------5/7               -----0-2
Eb---------               --------
...for you (1st time) 


4)
Db--7-4---2-4---4-2------
Ab--5-2---0-2---2-0---5-7
Eb--------------------3-5
"You make me smash..." etc


5)
Db--7---9--7-------------------------
Ab--5---7--5-7-5---5-7--5-7--7-5--5-4
Eb--0---0----5-3---3-5--3-5--5-3--3-2
"Hear Me.  If I close my mind..."


6a James)
Db--------------------------5-----------------9-7-5
Ab----5-7---5-7---5-7---5-7---5-7---5-7---5-7------
Eb--0-----0-----0-----0-----------0-----0----------
closing and it continues on similar to this and the
following pre solo

6b Kirk)
Db--2---3---4---5
Ab--2---3---4---5
Eb--0---1---2---3

__________________________________________________________
pre solo
eb-------------------------------------|
Bb-------------------------------------|
Gb-------------------------------------|
Db-------5---7b8b7---5---7b8b7---5-----|
Ab-7---------------------------------7-|
Eb-------------------------------------|
                                                                    

                  ^                               ^                    
eb--------------------------------------------------
Bb-----8-10h11p10-11--8-10h11p10-8----8-10h11p10--11
Gb--9-------------------------------9---------------
Db--------------------------------------------------
Ab--------------------------------------------------
Eb--------------------------------------------------
                                                                
eb------------------------------------------|
Bb------------------------------------------|
Gb------------------------------------------|
Db--------5---7~~~----9-----------5---------|
Ab--7~~-------------------5~~---------7~~---|
Eb------------------------------------------|
                                                                   
eb---------------------------------------------------------------------
Bb---------------------------------------------------------------------
Gb---------------------------------------------------------------------
Db-----------------7---9~--------------9---7~------------------9---7~--
Ab-------5---5~--------------5---5~--------------3-b-5-b-3-------------
Eb-7~~-----------------------------------------------------------------
                                                                                
 -----------------|
 -----------------|
 -------------7---|
 ----9---10-------|
 -----------------|
 -----------------|
                                  
------------------------------------|
------------------------------------|
------------------------------------|
------5---7b8b7---5---7b8b7b9-------|
7-----------------------------------|
------------------------------------|
                                                                    

Special thanks to Keefa (you know who you are).