Metallica:

: Metallica - "Mama said"










[ne]FORMAT



MIDI







Mama said

( "Load")

Metallica

: Hetfield and Ulrich

Accustic Guitar

Main Riff 
1)   D                       C       A
Eb---1--1-1-1-3--3-3-1--1-1--0--0-0--0--0-0-0-0--0-0-0--0-
Bb---3--3-3-3-3--3-3-3--3-3--1--1-1--1--1-1-1-3--3-3-1--1-
Gb---2--2-2-2-2--2-2-2--2-2--0--0-0--2--2-2-2-2--2-2-2--2-
Db---0--0-0-0-0--0-0-0--0-0--2--2-2--2--2-2-2-2--2-2-2--2-
Ab---0-----------------------3--3-3-----------------------
Eb--------------------------------------------------------


2a)  let     my      heart   go......
Eb---1-------0-------0-------3--3-3-3--3-3-3-----
Bb---3-------1-------1-------3--3-3-3--3-3-3-----
Gb---2-------0-------2-------0--0-0-0--0-0-0-----
Db---0-------2-------2-------0--0-0-0--0-0-0-----
Ab---0-------3-------0-------2--2-2-2--2-2-2-----
Eb---------------------------3--3-3-3--3-3-3-----



2b)  let    this    heart   be      still       Yeah,still
Eb---1------0---------------3-------------------------------
Bb---3------1---------------3-------------------------------
Gb---2------0-------3-------0-------2-----------------------
Db---0------2-------3-------0-------2-----------------------
Ab---0------3-------1-------2-------0-----------------------
Eb--------------------------3-------------------------------

then go back to the main riff


3)   never I ask of you.....
Eb---1--1-1-1---3--3-3-3--0--0-0-0--1--1-1-1
Bb---3--3-3-3---3--3-3-3--1--1-1-1--1--1-1-1
Gb---2--2-2-2---0--0-0-0--0--0-0-0--2--2-2-2
Db---0--0-0-1---0--0-0-0--2--2-2-2--3--3-3-3
Ab--------------2--2-2-2--3--3-3-3--3--3-3-3
Eb--------------3--3-3-3------------1--1-1-1


again the main riff


In the end they play this riff
4)
Eb---1-----0-----0-----1--1-1-1-3--3-3--1
Bb---3-----1-----1-----3--3-3-3-3--3-3--3
Gb---2-----0-----2-----2--2-2-2-2--2-2--2
Db---0-----2-----2-----0--0-0-0-0--0-0--0
Ab---0-----3-----0-----0--0-0-0-0--0-0--0
Eb---------------------------------------

the once more the 'never I ask of you' riff and at the very
end again Riff A1.