Metallica:

: Metallica - "Wasting my Hate"










[ne]FORMAT



MIDI







Wasting my Hate

( "Load")

Metallica

: Hetfield, Ulrich and Hammett

tune all guitars down 1/2 step
1)
Db-------------------------------------------------
Ab---------5-7~~-7--7-5---5~~-5------5-------------
Eb-0-0-5-7--------------7--------5-7---5~~-5--3-5-7
intro clean


2)
Db-----7-9----7-9----7-9----7-9
Ab---0-5-7--0-5-7--0-5-7--0-5-7
Eb-----------------------------
Crunch     


3)
Db--9-9-9/8-7--------------------------------
Ab--7-7-7/6-5--9-9-9/8-7--7-7/5--5/7-7--5/7-7
Eb-------------7-7-7/6-5--5-5/3--3/5-5--3/5-5
repeat a few times


4a)
Db--9-9-9-9-10-10-10-10-9-9-9-9-10-10-10-10
Ab--7-7-7-7-8--8--8--8--7-7-7-7-8--8--8--8-
Eb-----------------------------------------

4b)
Db--9-9-9-9-10-10-10-10-7-7-7-7---------9-9-9-9-10-10
Ab--7-7-7-7-8--8--8--8--5-5-5-5-7-7-7-7-7-7-7-7-8--8-
Eb------------------------------5-5-5-5--------------
verse riff B

It ends with the second riff and a F5 chord at the end
(8 on the Ab string)