Metallica: другие аккорды и тексты

Табулатура для бас-гитары: Metallica - "Wasting My Hate"

» Главная
» Аккорды
» Школа игры
» Софт для гитары
» Схемы примочек
» Магазин
» Продам
» Куплю
» Фотографии
» [ne]FORMAT
» Ссылки
» Форум
» Знакомства
» MIDI
» Контакты


»



Wasting My Hate

(альбом "Load")

Metallica

слова: Hetfield, Hammett and Ulrich

tune all guitars down 1/2 step
INTRO- GUITAR
|----------------------|
|----------------------|
|----------------------|
|----------------------|

|-----------------------------------|
|-----------------------------------|
|-0-5-7---0-5-7---0-5-7---0-5-7-----|
|---------------------------------0-|

BASS FIG 1
|---------------------------------------------------------------------
|---------------------------------------------------------------------
|---------------------------------------------------------------------
|-(0)-0-0-0-0-0-0-0-0-5-7-7-6-6-5-5-5-5-5-5-4-4-3--5-5-0-3-5-5-0--5-5-
END FIG 1
-----------|
-----------|
-----------|
-0-3-5-5-0-|

1,2,3 VERSES
|----------------------------------------------------------------------
|----------------------------------------------------------------------
|----------------------------------------------------------------------
|0-0-0-0-0-0-0-0-0-0-0-0-0-0-0H1--0-0-0-0-0-0-0-0-0-0-0-0-0-0-0-0H1-0--

----------------------------------------------------------------------
----------------------------------------------------------------------
-------------------------0--5--7---(7)--0-5-7--0-5-7----0-5-7---0-5-7-
-0-0-0-0-0-0-0-0-0-0-0-0----------------------------------------------

----------------------------------------------------------------------
----------------------------------------------------------------------
----------------------------------5---5-5-5-5-5-5---------------------
-0-0-0-0--0-0-0-0--0-0-0-0--0-0-0------------------7-5--(5)-5-5-5-5-5-

-----------------------------------------------------------------------
-----------------------------------------------------------------------
-------------------------------0--5--7--(7)--0-5-7----0-5-7---5-0--5H7-
-1-1-0-0-0-0-0-0-0-0-0-0-0-0-0-----------------------------------------

-----------------------------------------------------------------------
-----------------------------------------------------------------------
-------------------------------------5--(5)-5-5--5--5------------------
-7-6-5-3--0--0--0--0-0-(0)-0-0--0--0------------------5--(5)-5-5-0-3H5-

--------|
--------|
-2------|
---0----| 

CHORUS
|-----------------------------------------------------------------------
|-----------------------------------------------------------------------
|---------------5-7--(7)------7-5---5--(5)--5-5-5-------------------2---
|-(0)-0-0-0-5H7---0--(0)--0-0-----7---------------7-0-5-(5)--5-0-3-5--0-

----------------------------------------------------------------------
----------------------------------------------------------------------
---------------5-7--(7)------7-5----------------------------------2---
-(0)-0-0-0-5H7---0--(0)--0-0-----7\5--3--3-3-3-5-3---5----3--0--5---0-

---------------------------------------------------------------------|
---------------------------------------------------------------------|
---------------------------------------------------------------------|
-----(0)------------(0)----------------------(0)------------(0)------|

|-------------------|
|-------------------|
|--7---------(7)----|
|--0---------(0)----|   
 ............................3X's.....................................
|---------------------------------------------------------------------|
|---------------------------------------------------------------------|
|-0-5-7-0-5-7-0-5-7-0-5-7-0-------------------------------------------|
|---------------------------0-1-1--0-0-0-0-0-0-0-0-0-0-0-0-0-0-1-1----|

|---------------------------------------------------------------------|
|---------------------------------------------------------------------|
|----------------------7--------------------(7)-----------------------|
|----(0)---------------0--------------------(0)-----------------------|

|---------------------------------------------------------------------|
|---------------------------------------------------------------------|
|--(7)---------(7)--------------0-5-7-0-5-7-0-5-7-0-5-7-0-------------|
|--(0)---------(0)-----------------------------------------0--1--1----|