Metallica:

: Metallica - "Seek and Destroy"










[ne]FORMAT



MIDI







Seek and Destroy

( "Kill`em All")

Metallica

: Hetfield and Ulrich
: Phil Boyle, phil@encycmet.com





1)
e---------------------------------  a    ----------------
B--------------------------------- few   ----------------
G------7H8-7-------------------5-- times -9-7---7--------
D--------------7H8-7-------5-----7 then  -----9---9-8-7--
A--0-0-------0-------0-8-7---7----       ---------------9
E---------------------------------       ----------------
  pm..       .       .....
intro


2)
D----------5-7-5-7----------------
A----------5-7-5-7---------7-5----
E--0-0-0-0---------0-0-0-0-----7-6
  pm......         .......


3)
D------------------------------5--
A--------------------------------7
E--0-0-0-0-0-0-0-0-0-0-0-0-7-6----
  pm......................
verse


4)                         first time       second time
G--5-----5-7-5           -7-5------------   -9-7---7--------
D--5-----5-7-5  3 times  -----7-6-5------   -----9---9-8-7--
A----0-0------           -----------7-6-5   ---------------9
E-------------           ----------------   ----------------
    pm..
"running...hidding, dying"


5)
D--12--11--10--9----------------
A--10--9---8---7----------------
E----------------0-0-0-0-0-0-0-0
                pm..............
"searching, seek and destroy"


6)
G------------5------------------------------------
D--5--7-7-7--0--7-7-7--4--7-7-7--------3-2-0------
A--0--0-0-0-----0-0-0--0--0-0-0--3-2-0-------3-2-0
E-------------------------------------------------
pre-solo


7)
G------------5------------------------------------
D------------5------------------------------------
A--5--7-7-7--0--7-7-7--4--7-7-7--------3-2-0------
E--0--0-0-0-----0-0-0--0--0-0-0--3-2-0-------3-2-0
second half of last solo part


8)
D--12-11-----11-10-----10-9-------------12-11-----11-7-----7-9
A--10-9------9--8------8--7-------------10-9------9--5-----5-7
E--------0-0-------0-0------0-0-0-0-0-0-------0-0------0-0----
pm............................................................


9)
D---------------------------------
A------2-----5-----4-----5-----7\5
E--0-0-0-0-0-3-0-0-2-0-0-3-0-0-5\3
pm................................
close