Metallica: другие аккорды и тексты

Табулатура для бас-гитары: Metallica - "Seek and Destroy"

» Главная
» Аккорды
» Школа игры
» Софт для гитары
» Схемы примочек
» Магазин
» Продам
» Куплю
» Фотографии
» [ne]FORMAT
» Ссылки
» Форум
» Знакомства
» MIDI
» Контакты


»



Seek and Destroy

(альбом "Kill 'Em All")

Metallica

слова: Hetfield and Ulrich

G:--------------------|-------------------------|-------------------------
D:--------------------|-------------------------|-------------7--7--7-----
A:--------------------|-0--0--0--0--0--0--0--0--|-0--0--0--0-----------0--
E:--------------------|-------------------------|-------------------------
                                                                       
 
                                     repeat a couple times    
G:---------------------------|--------------------5-----|---------|
D::-------5H7---------5H7----|--------------5--------7-:|---------|
A::-0--0--------0--0------0--|-----0--8--7-----7-------:|---------|
E:---------------------------|--------------------------|---------|
 
   a bit later
G:|--------------------------|--------------------------|
D:|:-------------------------|-------------------------:|
A:|:-------------------------|--------------7--5-------:|
E:|--0--0--0--0--3--5--3--5--|--0--0--0--0--------7--6--|
 
 
G:--------------------------|--------------------------|
D:--------------------------|--------------------5-----|
A:--------------------------|-----------------------7--|
E:--0--0--0--0--0--0--0--0--|--0--0--0--0--7--6--------|
 
 
G:--------------------------|--------------------------|
D:--------------------------|--------------------------|
A:--------------------------|--------------------------|
E:--0--0--0--0--0--0--0--0--|--0--0--0--0--7--6--3--0--|
 
 
G:--------------------------|--------------------------|
D:--------------------------|--------------------5-----|
A:--------7-----------------|-----------------------7--|
E:--0--0-----0--0--0--0--0--|--0--0--0--0--7--6--------|
 
 
G:--------------------------|--------------------------|
D:--------------------------|--------------------------|
A:--------7-----------7-----|--------7-----------------|
E:--0--0-----0--0--0-----0--|--0--0-----0--7--6--3--0--|
 
 
G:--------------------------|--------------------------|
D:--------------------------|---------------5-----7----|
A:--3--0--0--0--3--5--3-----|--3--0--0--/7-----7-------|
E:--------------------------|--------------------------|
 
 
                            1.                        
G:-------------------------|--7--5--------------------|-|
D:-------------------------|--------7--6--5-----------|-|
A:--3--0--0--0--3--5--3----|-----------------7--6--5--|-|
E:-------------------------|--------------------------|-|
 
 
  2.
  same as before w/ this ending
G:|--9--7-----7--------------|--------------------------|
D:|--------9-----9--8--7--5--|--------------------------|
A:|--------------------------|--7--5-----5--------------|
E:|--------------------------|--------7-----7--6--5--3--|
                                                    
 
  in the chorus
G:--------------------------|----------------------|
D:---------------------5----|----------------------|
A:--------------------------|----------------------|
E:--3--3--3--3--3--3-3------|--2----2----1----1----|
 
 
G:--------------------------|----------------------------|--|
D:--------------------------|----------------------------|--|
A:--------------------------|----------5-----7-----7-----|--|
E:--0--0--0--0--0--0--0--0--|--0--5H7-----0-----0-----0--|--|
  
  
  same 1st 3 measures of
  chorus, then:                      a bit later on:
G:--------------------------|-------|--------------------------|
D:--------------------------|-------|-----------7--------7-----|
A:--7--5--------------------|-------|--------0-----0--0-----0--|
E:--------7--6--5--7--6--5--|-------|--3-H5--------------------|
 
 
G:--------------------------|--------------------------|
D:-----------7--------7-----|-----------7--------7-----|
A:--0--0--0-----0--0-----0--|--0--0--0-----0--0-----0--|
E:--------------------------|--------------------------|
 
 
G:--------------------------|
D:-----------3--2--0--------|
A:--3--2--0-----------3--0--|
E:--------------------------|