Metallica: другие аккорды и тексты

Табулатура для бас-гитары: Metallica - "No Remorse"

» Главная
» Аккорды
» Школа игры
» Софт для гитары
» Схемы примочек
» Магазин
» Продам
» Куплю
» Фотографии
» [ne]FORMAT
» Ссылки
» Форум
» Знакомства
» MIDI
» Контакты


»



No Remorse

(альбом "Kill 'Em All")

Metallica

слова: Hetfield and Ulrich
подбор: Steve Gorenberg

188 bpm                                                             2 times
||-------------------|---------------|-----------------|-----------------||
||-o-----------------|---------------|-----------------|---------------o-||
||-o-----R-------R---|-----R---------|-----R-------R---|-----R---------o-||
||---0h2---2-2p0---0-|-0h2---2-2p0-5-|-0h2---2-2p0---0-|-0h2---2-2p0-7---||
     e e e e e e e e   e e e e e e q   e e e e e e e e   e e e e e e q

Guitar solo I                                                       6 times
||-------------------|---------------|-----------------|-----------------||
||-o-----------------|---------------|-----------------|---------------o-||
||-o-----R-----------|-----R---------|-----R-----------|-----R---------o-||
||---0h2---2-2-0-0-0-|-0h2---2-2-0-5-|-0h2---2-2-0-0-0-|-0h2---2-2-0-7---||
     e e e e e e e e   e e e e e e q   e e e e e e e e   e e e e e e q

                                                       |1.
||-------------------|---------------|-----------------|-----------------||
||-o-----------------|---------------|-----------------|---------------o-||
||-o-----R-------R---|-----R---------|-----R-------R---|-----R---------o-||
||---0h2---2-2p0---0-|-0h2---2-2p0-5-|-0h2---2-2p0---0-|-0h2---2-2p0-7---||
     e e e e e e e e   e e e e e e q   e e e e e e e e   e e e e e e q

|2.                S1
|----------------||-------|------|---|---------|---|------|---|---------||
|----------------||-------|-R----|-R-|-R-------|-R-|-R----|-R-|-R-------||
|-----R----------||---R---|----3-|---|---------|---|----3-|---|---------||
|-0h2---2-2p0-7/-||-0-----|------|---|---5-6-7-|---|------|---|---5-6-7-||
  e e e e e e q     e h..   h. q   w   h e e q   w   h. q   w   h e e q

S2
  fig.1                                                     end fig.1  2 times
||-------------------|---------------|-----------------|-----------------||
||-o-----------------|---------------|-----------------|---------------o-||
||-o-----5h7-----5h7-|-----5h7-----3-|-----5h7-----5h7-|-----5h7-------o-||
||---0-0-----0-0-----|-0-0-----0-0---|-0-0-----0-0-----|-0-0-----5-6-7---||
     e e e e e e e e   e e e e e e q   e e e e e e e e   e e e e e e q

Verse 1,2,3
                     ||---|-------------|-----------------|-----------|
play fig.1  2 times  ||-R-|-------------|-----------------|-----------|
                     ||---|-------------|-----7-5---------|-----------|
                     ||---|-3b1/4-0-3-0-|-3-0-----7-3b1/4-|-(3)-0-3-0-|
                            q     q q q   q q e e e e       (q) q q q

|-----------------|-----------|-----------------|-----------|-----------||
|-----------------|-----------|-----------------|-----------|-----------||
|-----7-5---------|-----------|-----7-5---------|-----------|---------5-||
|-3-0-----7-3b1/4-|-(3)-0-3-0-|-3-0-----7-3b1/4-|-(3)-0-3-0-|-3-0-5-7---||
  q q e e e e       (q) q q q   q q e e e e       (q) q q q   q q e e q

Chorus
||-------------------|-----------------|-----------------|-----------------|
||-o-----------------|-----------------|-----------------|-----------------|
||-o-----------------|-----------------|-----------------|-----------------|
||---0-0-7-0-0-5-0-0-|-3-0-0-2-0-0-2-3-|-0-0-7-0-0-5-0-0-|-3-0-0-2-0-0-2-3-|

                                                                   2 times
                                                                  to coda I
                                                                  to coda II
|-----------------|-----------------|-----------------|-----------------||
|-----------------|-----------------|-----------------|---------------o-||
|-----------------|-----------------|-----7-----------|-3-----2-------o-||
|-0-0-7-0-0-5-0-0-|-3-0-0-2-0-0-2-3-|-0-0---0-0-5-0-0-|---0-0---0-3-2---||

D.S1 al coda I


Coda I                              triplet feel
|---------|---------|---|----------||------|  5  |-9-9-9-9-9-9-9-9-9-9-|
|---------|---------|-9-|-(9)------||----R-|-----|---------------------|
|---------|-----7-7-|-7-|-(7)-7\2/-||-/7---|-----|---------------------|
|-0-0-0-0-|-0-0-0-0-|-0-|-(0)------||--0---|     |---------------------|
  e e e e   e e e e   w   (h) q q      q h.        e e e e e e e e e e
                                                       [ 3 ]     [ 3 ]

                   3rd time start of Guitar solo II
|------------------||-------------------|-----------------|
|------------------||-o-----------------|-----------------|
|-7-7-7-7-7-7-7-7\-||-o---------------7-|---------------5-|
|------------------||---0-0-2-3-2-0-0---|-0-0-2-3-2-0-0---|
  e e e e e e e q       e e e e e e e q   e e e e e e e q
      [ 3 ]                 [ 3 ]             [ 3 ]

                                 6 times
|-----------------|-------------------||-----------------|-----------------|
|-----------------|-----------------o-||-----------------|-----------------|
|---------------3-|---------------5-o-||---------------7-|---------------9-|
|-0-0-2-3-2-0-0---|-0-0-2-3-2-0-0-----||-0-0-2-3-2-0-0---|-0-0-2-3-2-0-0---|
  e e e e e e e q   e e e e e e e q      e e e e e e e q   e e e e e e e q
      [ 3 ]             [ 3 ]                [ 3 ]             [ 3 ]


|------------------|-----------------|-----------------|-----------------|
|------------------|-----------------|-----------------|-----------------|
|---------------10-|---------------9-|---------------7-|---------------5-|
|-0-0-2-3-2-0-0----|-0-0-2-3-2-0-0---|-0-0-2-3-2-0-0---|-0-0-2-3-2-0-0---|
  e e e e e e e q    e e e e e e e q   e e e e e e e q   e e e e e e e q
      [ 3 ]              [ 3 ]             [ 3 ]             [ 3 ]

                                    152 bpm, straight eight feel
|-----------------|-----------------||-7-5-4-5-4---4-----------|---|---|
|-----------------|-----------------||-----------7---7-5-4-5-7-| % | % |
|---------------3-|---------------5-||-------------------------|---|---|
|-0-0-2-3-2-0-0---|-0-0-2-3-2-0-0---||-------------------------|---|---|
  e e e e e e e q   e e e e e e e q    e s s e s s e s s e s s
      [ 3 ]             [ 3 ]

       Tempo I  D. S2 al coda II
|------||
|------||
|-5----||
|----5-||
  h. q

Coda II fig.2
|  4  ||---------------------------------|-------------------------------|
|-----||-o---------------7-7-7-7-7-7-7-7-|---------------7-7-7-7-7-7-7-7-|
|-----||-o-0-0-0-0-0-0-0-----------------|-5-0-0-0-0-0-0-----------------|
|     ||---------------------------------|-------------------------------|
           e s s s s s s s s s s s s s s   e s s s s s s s s s s s s s s

                                              end fig.2  4 times
|-------------------------------|-------------------------||
|---------------7-7-7-7-7-7-7-7-|-----------------------o-||
|-2-0-0-0-0-0-0-----------------|-3-0-0-0-0-0-0-2--3--2-o-||
|-------------------------------|-------------------------||
  e s s s s s s s s s s s s s s   e s s s s s s e. e. e

Bridge   fig.3                                    end fig.3  2 times
||---------------|-------------|-------------|---------------||
||-o-------------|-------------|-------------|-------------o-||
||-o-0-0-0-3-0-0-|-0-0-0-5-3-0-|-0-0-0-3-0-0-|-0-0-0-2-3-2-o-||
||---------------|-------------|-------------|---------------||
     e q e e q e   e q e e q e   e q e e q e   e q e e q e

play fig.2  2 times, play fig.3  2 times, play fig.2  2 times

     Free time
|-----|--------|--------|-------------------------------------|
|-----|--------|-----14-|-12-12-10-10-9-9-7-7-9-9-7-7-5-5-4-4-|
|-3-2-|-----7--|-14-----|-------------------------------------|
|-----|-0------|--------|-------------------------------------|
  h h   h   h    h   h    s  s  s  s  s s s s s s s s s s s s
        /   /    /   /
        /   /    /   /

|---------------------------------|---------------||
|-7-7-5-5-4-4-2-2-5-5-4-4-0-0-2-2-|-2-------------||
|---------------------------------|---------------||
|---------------------------------|-----0-0-0-0-0-||
  s s s s s s s s s s s s s s s s   q   e e e e l
                                    /
                                    /

144 bpm
2/4         4/4 2/4         4/4
|-----------|---|-----------|-----||
|-----------|---|-----------|-----||
|-----------|-5-|-----------|---R-||
|-0-0-2-3-2-|---|-0-0-2-3-2-|-0---||
  q e e e e   w   q e e e e   q h.
  [3] [ 3 ]