Metallica: другие аккорды и тексты

Табулатура для бас-гитары: Metallica - "Phantom Lord"

» Главная
» Аккорды
» Школа игры
» Софт для гитары
» Схемы примочек
» Магазин
» Продам
» Куплю
» Фотографии
» [ne]FORMAT
» Ссылки
» Форум
» Знакомства
» MIDI
» Контакты


»



Phantom Lord

(альбом "Kill 'Em All")

Metallica

слова: Hetfield, Mustaine and Ulrich
подбор: Steve Gorenberg

intro
108 bpm
                       2 times 3/4  4/4            2 times
-----||----------|----------||----||----------|----------||-----|
-----||-o------R-|--------o-||----||-o------R-|--------o-||-----|
--R--||-o-0--0---|-0--0-0-o-||-0--||-o-2--2---|-2--2-2-o-||-2---|
-----||----------|----------||----||----------|----------||-----|
  l       h. e e   h. e e      h.      h. e e   h. e e      l

152 bpm  fig. 1
|  4  ||----------------------------|--------------------------|
|-----||-o------14----14------------|------14----14------------|
|-----||-o--------------------------|------------------------R-|
|     ||---0-12----12----12-0-0-3-5-|-0-12----12----12-12-10---|
           e s  e  s  e  e  s s e e   e s  e  s  e  e  e  e  e

                                          end fig.1  2 times
|--------------------------|---------------------------||
|------14----14------------|------14----14-----------o-||
|--------------------------|-------------------------o-||
|-0-12----12----12-0-0-3-5-|-0-12----12----12-12-15\---||
  e s  e  s  e  e  s s e e   e s  e  s  e  e  e  q

Verse 1

  fig.2                          end fig.2
|---------------------|-------------------|
|---------------------|-------------------|  play fig.1, fig.2, fig.1
|-0-0-0-0-0-0-0-0-0-0-|-3-3-3-3-3-2-------|
|---------------------|--------------3-3--|
  e e s s e e e s s e   e e s s e e. e e.

Chorus

  fig.3
||-------------------|-----------------|-----------------|
||-o-----------------|-----------------|-----------------|
||-o-----------------|-----------------|-----------------|
||---0-5--3--5--2--3-|-0-5--3--5--2--3-|-0-5--3--5--2--3-|
     e e. e. e. e. e   e e. e. e. e. e   e e. e. e. e. e

         end fig.3  2 times
|-------------------||---------||-----|-----|---|---|              ||
|-----------------o-||---------||-----|-----|---|---| play fig. 1  ||
|-----------------o-||---R-----||-----|-----|-R-|-R-|              ||
|-0-5--3--2--3--2---||-0-----0-||-(0)-|-(0)-|---|---|              ||
  e e. e. e. e. e      q h+e e    (w)   (w)   w   w


Verse 2 : play fig.2, fig.1, fig.2, fig.1
Chorus 2 : play fig.3  2 times

      Guitar solo
|-----||----------------------|-----|-----|-----|--------------------|
|-----||-o-----R---R---R------|  %  |  %  |  %  |-------------R------|
|---R-||-o---3---2---3--------|-----|-----|-----|-----R---R-----3--2-|
|-0---||---0-------------2--3-|-----|-----|-----|-0-3---2---3--------|
  q h.     e e s e s e s e. e                     e e s e s e s e. e

                2 times  66 bpm
|-----|-----|--------||-------------||
|  %  |  %  |  %  -o-||-2-0---------||
|-----|-----|------o-||-----3-2-----||
|-----|-----|--------||---------3-2-||
                        q q q e s s

Interlude
|------------------------|---------------------------|----------------------|
|------------------------|---------------------------|----------------------|
|----------------5-3-5-3-|-----------5-3-2-0-2-0-----|----------------------|
|-0--0-3--3-2--2---------|-0--0-3--3-------------2-3-|-0--0-3--3-2--2-1-1-1-|
  e. s e. s e. s s s s s   e. s e. s s s s s s s s s   e. s e. s e. s s e s

|---------------------|-------------------------|-----|-----|-----|
|---------------------|-------------------------|  %  |  %  |  %  |
|---------------------|---2-----2-----2-----3---|-----|-----|-----|
|-0--0-3--3-2--2-1--1-|-0---0-3---3-2---2-1---1-|-----|-----|-----|
  e. s e. s e. s e. s   e s s e s s e s s e s s

                                  4 times  96 bpm   accel.
||-------------------------------------||---------|-----------|
||-o---------------------------------o-||---------|-----------|
||-o---------------------------------o-||---------|-----------|
||---0-0-0-0-3-3-3-3-2-2-2-2-1-1-1-1---||-0-0-0-0-|-12-12\0-0-|
     s s s s s s s s s s s s s s s s      q q q q   q  q  q q

152 bpm
||-------------------|---------------|---------------------------------|
||-o-----------------|---------------|---------------------------------|
||-o-0-0-0-0-0-0-0-0-|-3-3-3-3-2-----|---------------------------------|
||-------------------|-----------3-3-|-0-0-0-0-0-0-0-0-0-0-0-0-0-0-0-0-|
     e e e e e e e e   e e e e q q q   s s s s s s s s s s s s s s s s
                               [ 3 ]

|1.                              |2.
|-------------------------------||-------------------12-13-14\---||
|-------------------12-13-14\-o-||-----------------------------o-||
|-----------------------------o-||-----------------------------o-||
|-0-0-0-0-0-0-0-0-0-------------||-0-0-0-0-0-0-0-0-0-------------||
  s s s s s s s s e s  s  q        s s s s s s s s e s  s  q

|3.                             |4.
|------------------------------||---------------------------------|
|-------------------------14-o-||---------------------------------|
|-------------------12h14----o-||---------------------------------|
|-0-0-0-0-0-0-0-0-0------------||-0-0-0-0-0-0-0-0-0-0-0-0-0-0-0-0-|
  s s s s s s s s e s  s  q       s s s s s s s s s s s s s s s s

                            Verse 3
|------|---||              ||
|------|---||  play fig.1  || play fig.2, fig.1, fig.2, fig.1, fig.3  3 times
|---R--|-R-||              ||
|-0----|---||              ||
  q h.   w

        7/8          4/4  Free time             138 bpm
|---|---|------------|---|----|-----|-----|-----|---|-----||
|---|---|------------|---|----|-----|-----|-----|---|-----||
|---|-2-|------2-3-4-|-5-|-7--|-(7)-|-(7)-|-(7)-|-R-|---R-||
|-0-|---|-3--3-------|---|-0--|-(0)-|-(0)-|-(0)-|---|-0---||
  w   w   q. e e e e   w   w     w     w   l    w   q h.
                           /     /     /
                           /     /     /