Metallica:

: Metallica - "Whiplash"










[ne]FORMAT



MIDI







Whiplash

( "Kill`em All")

Metallica

: Hetfield and Ulrich
: Tony Asplund and Phil Boyle, phil@encycmet.com

1)
D--9-9-9-9--9-9-9-9--9-9-9-9--9
A--7-7-7-7--7-7-7-7--7-7-7-7--7
E------------------------------
intro


2)
D----------------------------------------------7-6-5
A----------------------------------------------7-6-5
E--0-0-0-0-0-0-0-0-0-0-0-0-0-0-0-0-0-0-0-0-0-0------
  pm..........................................


3)
D----------------------------------------------------------------5
A----------------------------------------------------------------5
E--0-0-0-0-0-0-0-0-0-0-0-0-0-0-0-0-0-0-0-0-0-0-0-0-0-0-0-0-0-0-0--
  pm..............................................................
"Late at night..."


4)
D--5--5-4-2----------------------------
A--3--3-2-0--4-4-4--4-4-4--4-4-4--4-4-4
E------------2-2-2--2-2-2--2-2-2--2-2-2
            pm.........................
"Adrenaline..."


5)
D--7-5-4---------------5---5--------
A--5-3-2--7-5----7-5---5---5--------
E---------5-3-0------7---7---0-0-0-0
              pm......
pre solo and solo


6)
D-----------------
A--2--4-4-4--2-4-2
E--0--2-2-2--0-2-0
closing riff