Metallica:

: Metallica - "Jump in the Fire"










[ne]FORMAT



MIDI







Jump in the Fire

( "Kill`em All")

Metallica

: Hetfield, Ulrich and Mustaine
: Phil Boyle, phil@encycmet.com

1a)                                            first time
e----------------------------------      ----------------------
B----------------------------------      ----------------------
G---------------------------------- then ------------------5--3
D----------3----------------3------      ---------3--------5--3
A------3-5---5-3--------3-5---5-3--      -----3-5---5-4-3--3--1
E--3-6-----------6--3-6-----------6      -3-6------------------
pm.................................       ...............

1b)
2nd and 4th                  3rd
e------------------------   --------------------------
B------------------------   --------------------------
G--------------------5--3   --------------------------
D--3--------3--------5--3   -5-3---3---------------3-5
A----5-4-3----5-4-3--3--1   -----5---5-4-3-----3-5----
E------------------------   ---------------3-6--------
pm.................          .........................
intro


2)
D--------------3--3-3-3--------------5--5-5-5-7
A--------------1--3-3-3--------------3--3-3-3-5
E--1-3-3-1-3-0----1-1-1--1-3-3-1-3-0-----------
pm............    ..................    .......
verse


3)
D--------------------------------------------------------
A--8-8-8-8-8--8-8-8-8-8--6--8--5-5-5-5-5--5-5-5-5-5--3--5
E--6-6-6-6-6--6-6-6-6-6--4--6--3-3-3-3-3--3-3-3-3-3--1--3
pm.......................................................
pre and solo