written by Glen Danzig:

: written by Glen Danzig - "Last Caress"










[ne]FORMAT



MIDI







Last Caress

written by Glen Danzig


as performed by Metallica on Garage Days Revisited
tab by Phil Boyle; phil@encycmet.com


1)
D------10-12------10-12--10-7---
A--10--8--10--10--8--10--8--5-10
E--8----------8---------------8-
I got something to say...


2a)
D-------------------------10-12---
A--10------------------10-8--10-10
E--8-8-8-8-8-8-8-8-8-8-8--------8-
  pm....................        .

2b)
D-------------------------10-12--10-10-7-7---
A--10------------------10-8--10--8--8--5-5-10
E--8-8-8-8-8-8-8-8-8-8-8-------------------8-
  pm....................        
pm
main riff


3)
D-----------------------------
A--3-3--5-5--10-10-9-9-7-7-5-5
E--1-1--3-3--8--8--7-7-5-5-3-3
pm............................
True love today...