by Budgie:

: by Budgie - "Crash Course in Brain Surgery"










[ne]FORMAT



MIDI







Crash Course in Brain Surgery

by Budgie


as performed by Metallica on Garage Days Re-Revisited
tab by Travis Fitch and Phil Boyle; phil@encycmet.com


Tune all guitars down 1 full step
1)
d-------------------------------
A-------------------------------
F-------------------------------
C--------------0-1-2------------
G--------0-1-2-------0-1-2-0-1-2
D--0-1-2------------------------


2)
F------------------------------------
C------------------------------------
G--2h4-4-4--2h4-4-4--2h4-4-4--2h4-4-4
D--0h2-2-2--0h2-2-2--0h2-2-2--0h2-2-2
verse


3)
F------------------
C--4-2-------------
G------4-2---------
D----------5-2--0-1


4)
F-----------------------------------------
C-----------------------------------------
G--5/7-7-7--5/7-7-7--5/7-7-7--5/7-7-7--7-2
D--3/5-5-5--3/5-5-5--3/5-5-5--3/5-5-5--5-0
"insane...yeah"


5)
F--------------------------
C------7------------7------
G--7-9-------7--7-9-------7
D--------7-9----------7-9--
after bass solo