by Killing Joke:

: by Killing Joke - "The Wait"










[ne]FORMAT



MIDI







The Wait

by Killing Joke


as performed by Metallica on Garage Days Re-Revisited
tab by Phil Boyle; phil@encycmet.com


1)
G------------
D-----3-----3
A------------
E--0-----0---
intro (with wah as filter)


2)   E5               (arpeggio)                  F5
G--------------------------0---------------------------
D--2-2--2-2--2-2-2-------3----2-2--2-2--2-2-2---3-3-3-3
A--2-2--2-2--2-2-2-----3------2-2--2-2--2-2-2---3-3-3-3
E--0-0--0-0--0-0-0-0-1--------0-0--0-0--0-0-0-0-1-1-1-1
 pm....................................................
(play the E5's and the arpeggio once more then E5's and let the F ring)
Main riff


3) A5        B5        C5     F5(II)          B5       C5       F5(I)
G--2---------4---------5---------5--2---------4---------5----------
D--2---------4---------5---------3--2---------4---------5---------3
A--0-0-2-0-2-2-0-2-0-2-3-0-2-0-2----0-0-2-0-2-2-0-2-0-2-3-0-2-0-2-3
E-----------------------------------------------------------------1
     pm.....   .......   .......      .......   .......   .......
The Wait...