Metallica:

: Metallica - "Of Wolf and Man"










[ne]FORMAT



MIDI







Of Wolf and Man

( "Metallica (The Black Album)")

Metallica

: Hetfield, Ulrich and Hammett
: Phil Boyle, phil@encycmet.com

1)
D--2--2--2--2--2--2--2--2--2-9---10--11--12
A--2--2--2--2--2--2--2--2--2-7---8---9---10
E--0--0--0--0--0--0--0--0--0---0---0---0---
intro


2)
D--------------4-3-----------------
A---------3-2--2-1--------0h5h7p5h7
E--0--0-0-1-0-------0h5h7----------
Off through the...(sometimes with the ending sometimes without)


4)
D----------4-3----------6-5----------6-4
A--2-2-3-2-2-1--2-2-3-2-4-3--4-4-5-4-4-3
E--0-0-1-0------0-0-1-0------2-2-3-2----
Nose to the wind...


5)
D------------------------------
A------5--------5-4--4--4--4--4
E--2-2-3-2--2-2-3-2--2--2--2--2
Back to the meaning...


6)
D------------------4-3
A--------3-2-------2-1
E--0-0-0-1-0-0-0-0----
pre solo