Metallica:

: Metallica - "Nothing Else Matters"










[ne]FORMAT



MIDI







Nothing Else Matters

( "Metallica (The Black Album)")

Metallica

: Hetfield and Ulrich
: Phil Boyle, phil@encycmet.com

If you don't know how to fingerpick, I suggest you learn.  This song
can be played with a pick, but the fingers add a lot of class.  Plus
you can add your own little fills and other things.  This song is not
as difficult as it looks.

1a)
e--------0-----------0---7-7-----7p0----
B------0---0-------0---0-----0-------0--
G----0-------0---0-------------0-------0
D---------------------------------------
A---------------------------------------
E--0-----------0---------0--------------

1b)
e------7-8-7-5-7p5-0-----------------0
B------0-0-----0-----5---5-7-5-----5--
G----0-----------------5---------5----
D-------------------------------------
A----------------------0-------0------
E--0----------------------------------

1c)                                       Harm....
e--------------3--------------0h5p0--------------12
B--5-5-5---5-----5----7---7---------7---------12---
G--5-5-5-5---5-----5--7-7---7---------7----12------
D--------------------------------------------------
A--0-2-3--------------5----------------------------
E----------------------------------------0---------
intro


2a)
e--------0-------------0------------
B------0---0-----------8-----7-----5
G----0-------0-------9-------7-----5
D------------------9-------7-----5--
A----------------7-------5-----3----
E--0-----------0--------------------
twice

2b)
e--------0-------------7---5----------3----------3--------2---------
B------0---0-----------8-----7----------5----------3--------4-------
G----0-------0-------9---------7----------5----------4--------2--2p0
D------------------9-------------7----------5-----------------------
A----------------7-------5----------3-------------------2-----------
E--0-----------0-------------------------------3--------------------
intro 2


3)
e--------3p0--2--2h3--0------ 2 -------3p0--2--2h3--3-------3-----2--
B------0------3--3----3------ t -----0------3--3----3-------3-----0--
G----0--------2--2----------- i ---0--------2--2----------0-----2----
D---------------------------- m -------------------------------------
A---------------------3------ e --------------------3---------2------
E--0--------------------3-2-0 s -0--------------------3-3-----------0
verse


4)
e--0--0---2-2-2--2-2-2-3-2-0--0--0
B--1--2---3-3-3--3-3-3-3-3-3--1--2
G--0--2---2-2-2--2-2-2-2-2-2--0--2
D--2--2---0-0-0--0-0-0-0-0-0--2--2
A--3--0-----------------------3--0
E--0--------------------------0---
chorus 


5)
e--12----14----15----17----8-----8------------8-0-----0---0-----0---0-------0
B-----12----12----12----12-5-5-----5--------5-----1-----1---3-----0---12-12--
G--------------------------5---5-----5----5---------0---------2--------------
D----------------------------------------------------------------------------
A--------------------------------------0-------------------------------------
E----------------------------------------------------------------------------
interlude


6)
G------------------|----9--7--5------- 2  ----9--7--5-----4---
D------------------|----9--7--5------- ti ----9--7--5--5--4---
A--2-2-2-2-2-2-2-2-|-2--7--5--3------2 me -2--7--5--3--5--2--2
E--0-0-0-0-0-0-0-0-|-0-----------3-2-0 s  -0-----------3-----0
pm................
solo backing


Solo (James)
   ^   ^V
e-----------------------------------------
B-----------------------------------------
G--14--14-12~~14-12-11h12p11----11--------
D----------------------------14----12-14~~
A-----------------------------------------
E-----------------------------------------

e-----------------12-------12----------------------------------------
B--------------12-------12----15-12----12-------------14-14--14-13-12
G--12-14-12-14-------14-------------15----15-14-12----14-14--14-13-12
D--------------------------------------------------14----------------
A--------------------------------------------------------------------
E--------------------------------------------------------------------

e--/15-14----15-14-17~15p14p12h15p12-----
B---------12-------------------------12~~
G----------------------------------------
D----------------------------------------
A----------------------------------------
E----------------------------------------

            ^                        ^     ^
e--------------------------------12----12------------------------
B-----------------------------12----15----15~~--12h15p12--7-7-5-7
G--12-14-12-14-12----------14------------------------------------
D-----------------14-12-14---------------------------------------
A----------------------------------------------------------------
E----------------------------------------------------------------