Metallica:

: Metallica - "The Struggle Within"










[ne]FORMAT



MIDI







The Struggle Within

( "Metallica (The Black Album)")

Metallica

: Hetfield and Ulrich
: Phil Boyle, phil@encycmet.com

drum intro
1)
D--2-2--2-2-2-2-2-2-2--2-2
A--2-2--2-2-2-2-2-2-2--2-2
E--0-0--0-0-0-0-0-0-0--0-0
  pm......................


2)
e----------------------------------        -12~~
B-------------------7-8---7-7-8-10~ repeat -----
G--------7---7-9-7------9---------- and    -----
D----7-9-5-9----------------------- end on -----
A----5-7---7-----------------------        -----
E--\\------------------------------        -----


3)
D--2-2--2-2-2-2-2--2-2--2-2-2-2-2
A--2-2--2-2-2-2-2--2-2--2-2-2-2-2
E--0-0--0-0-0-0-0--0-0--0-0-0-0-0
  pm.............................
Reaching out


4)
D--2-2-5-2-2--2-2-2-4/5-2-2
A--2-2-5-2-2--2-2-2-4/5-2-2
E--0-0-3-0-0--0-0-0-2/3-0-0
  pm.......................
Kicking at


5)
D--2-2--2-2-2-4/5-2-2--2-2-2-4/5-2-2-2-5---5---5
A--2-2--2-2-2-4/5-2-2--2-2-2-4/5-2-2-2-5---5---5
E--0-0--0-0-0-2/3-0-0--0-0-0-2/3-0-0-0-3-0-3-0-3
  pm
What the hell


6)
G------------------------4h5------4h5
D--5-5-5h7--3-3-5h7--5-5------3-3----
A--5-5------3-3------5-5------3-3----
E--3-3------1-1------3-3------1-1----
mind...


7)
D--4--2--4--2--4--2--4--2
A--4--2--4--2--4--2--4--2
E--2--0--2--0--2--0--2--0
Struggle within...


8)
D----------------------------------------------------------------
A--2-2-2-2-2-2-2--2-2-2-2-2-2-2--2-2-2-2-2-2-2-7\6\5-5\4\3--3-3-3
E--0h3-0-0-0-0-0--0h3-0-0-0-0-0--0h3-0-0-0-0-0-5\4\3-3\2\1--1-1-1
post solo