Metallica: другие аккорды и тексты

Табулатура для бас-гитары: Metallica - "My Friend of Misery"

» Главная
» Аккорды
» Школа игры
» Софт для гитары
» Схемы примочек
» Магазин
» Продам
» Куплю
» Фотографии
» [ne]FORMAT
» Ссылки
» Форум
» Знакомства
» MIDI
» Контакты


»



My Friend of Misery

(альбом "Metallica (The Black Album)")

Metallica

слова: Hetfield and Ulrich
подбор: Chris Binding

Bass Riff1
|-----10---------10---------10--14---------12---------10------|
|---------12---------12-------------12---------12---------12--|
|--0----------0----------0--------------0----------0----------|
|-------------------------------------------------------------|

|-----9---------9---------9--12---------10---------9------|
|--------10--------10------------10---------10--------10--|
|--0---------0---------0-------------0----------0---------|
|---------------------------------------------------------|

Bass Riff2
|-----10---------10---------10--14---------12---------10------|
|---------12---------12-------------12---------12---------12--|
|--0----------0----------0--------------0----------0----------|
|-------------------------------------------------------------|

|-----9---------9---------9--12---------10---------9--\--|
|--------10--------10------------10---------10-----------|
|--0---------0---------0-------------0----------0--------|
|--------------------------------------------------------|

Bass Riff3
|-------------------------------------------------------------------|
|-------------------------------------------------------------------|
|------------------------------3------------------------------------|
|--5-5-5-5-5-5-5-5-5-5-5-5-5-5---3-5-5-5-5-5-5-5-5-5-5-5-5-5-5-3-5--|

Bass Riff4
|-----------------|
|-----------------|
|-----------------|
|---5-------5--5--|

Bass Riff5
|--------------------------------------------------------------------|
|--------------------------------------------------------------------|
|------0-2-3-4-------0-0---0-2--2-0-----0-2-3-4-------0-0-1-2--------|
|--2-2---------0-0-0----------------2-2---------0-0-0---------0-0-0--|

Bass Riff6
|-----------------------------------|
|-----------------------------------|
|--------------------------------0--|
|--0-0-0-0-0-0-0-0-0-0-0-0-0-0-0----|

Bass Riff7
|--------------------------------------------------------------------------|
|--------------------------------------------------------------------------|
|--------------------------------------------------------------------------|
|--2-2-----0-1--2-2-----0-3--2-2-----0-1--2-2-----0-3--2-2---2-2-0-1--2-2--|

Bass Riff7 (cont.)
|------------------------------------------------|
|------------------------------------------------|
|--------------------------------------------9\--|
|--2-2-2-0-3-3-2-2-2-2-2-2-0-1-2-2-2-2-2-2-0-----|

Bass Riff8
|---------------------------------------------------------------|
|---------------------------------------------------------------|
|----------------------------------------0-2-3-4-----0-0-1-2----|
|--2-2-2-2-2-2-2-2-2-2-2-2-2-2-2-2-2-2-2---------0-----------0--|