Metallica:

: Metallica - "The god That Failed"










[ne]FORMAT



MIDI







The god That Failed

( "Metallica (The Black Album)")

Metallica

: Hetfield and Ulrich
: Phil Boyle, phil@encycmet.com

tune all guitars down 1/2 step
bass intro
1)
Gb-------------------------
Db-----------9-9-----------
Ab--10-10-7------7--10-10-7
Eb-------------------------
intro each part paned to different sides


2)
Gb--------------------------------------------------------------------------
Db------------9-9-------------9-----------7------------------------------9--
Ab--10-10-7-------7---10-10-7---7-10-10-7---7--10-10-7---5-5-7---10-10-7---7
Eb----------0-------0----------------------------------0-------0------------
main riff


3)
Db--------------------
Ab--9h10p9\7\5\4\2----
Eb-----------------5\3
pm....................


4a)
Db-------------------------------------
Ab--2-2-2-2--3-2-2-2--3-2-2-5-2-3-2-2-2
Eb--0-0-0-0--1-0-0-0--1-0-0-3-0-1-0-0-0
   pm....    .....    .....   .......
Pride you took...

4b)
Db--------------------------------------------------------------------------
Ab--3-3-3-3--3-3-3-3--3-3-3-5-3-5-3-3-3--3-3-3-3--3-3-3-3--3-3-3-5-3-5-2-2-2
Eb--1-1-1-1--1-1-1-1--1-1-1-3-1-3-1-1-1--1-1-1-1--1-1-1-1--1-1-1-3-1-3-0-0-0
   pm....    .....    .....   .   ............    .....    .....   .   .....
...from above.  It feeds...


5)
Gb--------------------------------------------------------------------
Db----------9--------------9----9--7------------------------------9--7
Ab--10-7--7---7--7-10-7--7---7--7--5----------9--------------9----9--7
Eb------------------------------0-----10-7--7---7--7-10-7--7---7--7--5
I see the faith...


6)
eb------------0
Bb----------0--
Gb--------0----
Db------2------
Ab----2--------
Eb--0----------
close, clean, let ring