Metallica:

: Metallica - "Dyers Eve"










[ne]FORMAT



MIDI







Dyers Eve

( "...And Justice for All")

Metallica

: Hetfield, Ulrich, and Hammett
: Phil Boyle;

1)
D------------------------------------------------------------------------
A--2-3-2-3-2-3-2-3-2--3--2--5--2--3--2--2-3--2--3--2--5--2--3--2--2-3-2-3
E------------------0--1--0--3--0--1--0--0-1--0--1--0--3--0--1--0---------
  pm..............                                                .......
intro


2)
D--------------------------------------------
A--2-----3-----2-----5-2-----3-----2--2-3-2-3
E--0-0-0-1-0-0-0-0-0-3-0-0-0-1-0-0-0---------
    pm..   ...   ...     ...   ...    .......
more intro


3)
D--------------5\4---4 three ----------------------5-4
A--2-3-2-3-2-3-3\2p0h2 times -2-3-2-3-2-3-2-3--3-2----
E--------------------- then  -------------------------
  pm..........                ...............
after drum fill


4)
D-------------------------------
A--2--5-5-2--5-5-2--5-5-2--5-5-2
E--0--3-3-0--3-3-0--3-3-0--3-3-0
after above riff twice


5)
D--------------5--5-5-4-4-----------------------7-------5------
A--2-3-2-3-2-3-3--3-3-2-2-------2-------2-------5-------3------
E-------------------------3-2-0-0-3-2-0-0-3-2-0---3-2-0---3-2-0
  pm..........
more intro


6a)
D--------2-----4/5
A--4--5--0--2--2/3
E--2--3-----0-----
Dear Mother...

6b)
D-----------2-----
A--4--5--2--0----5
E--2--3--0-----0h3
Believer, deceiver

6c)
D--10-7--2------5
A--8--5--0--5---3
E-----------3----
Pushed onto me


7)
D------------------------------------7--------7 (the open  -------5-5
A--2-2-2-2--2-2-2-2------2-2-2-5-5-5-5--5-5-5-5  E's again -0-2-3-3-3
E--0-0-0-0--0-0-0-0--3-2-0-0-0-----------------  then)     ----------
    pm...........    ...       .....    .....               .....
Innocence...


8a)
D------------------5\4---4
A------------------3\2p0h2
E--0-0-0-0-0-0-0-0--------
  pm..............

8b)
D-------------------------
A------------------5\4---4
E--2-2-2-2-2-2-2-2-3\2p0h2
  pm..............
solo

9)
D-----------------------
A----------------3p2-0-2
E--0--0-0-0--0-0-1p0---0
I'm in hell...
post solo

There's probably a lot of errors in this one.