Metallica: другие аккорды и тексты

Табулатура для бас-гитары: Metallica - "To Live is to Die"

» Главная
» Аккорды
» Школа игры
» Софт для гитары
» Схемы примочек
» Магазин
» Продам
» Куплю
» Фотографии
» [ne]FORMAT
» Ссылки
» Форум
» Знакомства
» MIDI
» Контакты


»



To Live is to Die

(альбом "...And Justice for All")

Metallica

слова: Hetfield, Ulrich, and Burton
подбор: Chris Binding

Bass Fig1
|-----------------------------------------------------------------------------|
|-----------------------------------------------------------------------------|
|-----------------------------------------------------------------------------|
|-2---2---x--x--0--2--3---3---x--x--3p-2--2---2---x--x--0--2--5---5---5p3-3p2-|


Bass Fig2
|------------------------------------------------------------------|
|------------------------------------------------------------------|
|------------------------------------------------------------------|
|--2--2-2--3--3-3--2--2-2--5--5-5--2--2-2--3--3-3--2--2-2--5--5-5--|


Bass Fig2 (cont.)
|-------------------------------------------------------------------|
|-------------------------------------------------------------------|
|-------------------------------------------------------------------|
|--2---3---2---5---2---3---2---5---2h3-2h5-2h3-2h5-2h3-2h5-2h3-2h5--|


Bass Fig3
|------------------------------------------------------|
|------------------------------------------------------|
|--------------3--2--0------------------------4--3--2--|
|--2--2--5--2------------2-----5----2---x--x-----------|


Bass Fig3
|---------------------------------------------------------|
|---------------------------------------------------------|
|--------------3--2--0---------------------------4--3--2--|
|--2--2--5--2------------2--x-x-x-5----2---x--x-----------|


Bass Fig4
|----------------------------------------------|
|----------------------------------------------|
|----------------------------------------------|
|--2---2----3---3----0---0----5-------3--------|


Bass Fig5
|------------------------------------------------------------------------|
|------------------------------------------------------------------------|
|----------------------------2------------------------5-------------2----|
|--5---5-5-0-3---3-3-5-0---0---0-1---3--5---5-5-7-3-----3-5-0---0-0---3--|


Bass Fig6
|---------------------------------------------------------------------------|
|---------------------------------------------------------------------------|
|--/12---12-12h14p12-10---10-12-10-7---7-7-10-8---10---12---12-12h14p12-10--|
|---------------------------------------------------------------------------|


Bass Fig6 (cont.)
|-------------------------------------------------------------------|
|-------------------------------------------9h10-9------------------|
|--10-10h12p10-7---7-10-7-10---10-/-12---12--------10---10-12-10-7--|
|-------------------------------------------------------------------|


Bass Fig6 (still cont.)
|-------------------------------------------------------------------------|
|-------------------------------------------------------------------------|
|--7-7-10-8---10---12---12-12h14hp12-10---10-12-10-7---7-10-7-10---10-7\--|
|-------------------------------------------------------------------------|


Bass Fig6 (even more cont.)
|----------------------------------------------------------------------------|
|----------------------------------------------------------------------------|
|------------------------------------------------------------------------2---|
|--5---5-7-5-3---3-5-3-0---0-0-3-1---3---5---5-5h7p5-3---3-3h5p3-0---0-0---3-|


Bass Fig6 (even more still cont.)
|-----------------------------------------------------------------------|
|-----------------------------------------------------------------------|
|-----------------------------------------------------------------------|
|--3---5---5-5h7p5-3---3-3h5p3-0---0-0-0-1---3---5---5-7-5-3---3-5-3-0--|


Bass Fig6 (last cont.)
|-------------------|
|-------------------|
|-------------------|
|--0-3-0-3---3-3-\--|


Bass Fig7
|-------------------------------------------------------------|
|-------------------------------------------------------------|
|-------------------------------------------------------------|
|--5---5-5-0-3-5---5-5-0-3-5---5-5-0-2-3---3-3-3-0---3-3-3-0--|


Bass Fig8
|----------------------------------------------------------------------------|
|----------------------------------------------------------------------------|
|--2--2-2-2--2-2-----2--2-2-2--2-2-----2--2-2-2--2-2-------------------------|
|----------------2-5---------------2-5---------------2-4-5--5-5-5--5-5-5--2--|


Bass Fig8 (cont.)
|---------------------------------------------------------|
|---------------------------------------------------------|
|----------------------2-2----2-2----2-----2-----2-----2--|
|--5--5-5-5--5-5-5--2-------------------------------------|


Bass Fig9
|---------------------------------------------------------------------------|
|---------------------------------------------------------------------------|
|---------------------------------------------------------------------------|
|--2---2---2---0--2--3---3---3---3p-2---2---2---2---0--2--5---5---5p3--3p2--|


Bass Fig9 (cont.)
|-----------------------------------|
|-----------------------------------|
|-----------------------------------|
|--2-----2-----3-----3-----0-----0--|


Bass Fig10
|---------------------|
|---------------------|
|---------------------|
|--2---2------2---2---|


How it's played:
Guitar Intro
Drums enter (if you want to you can play a muted low E in time with snare)
Bass Fig1 x 3
Bass Fig2 x 1
Bass Fig1 x 2
Bass Fig2 x 1
Bass Fig1 x 2
Bass Fig3 x 1
Bass Fig1 x 2
Bass Fig2 x 1
Bass Fig1 x 4
Bass Fig2 x 1
Bass Fig1 x 2
Bass Fig4 x 1
Bass Fig5 x 2
Guitar Doodle 
Bass Fig6 (start as drums enter) x 1
Bass Fig5 x 3
Bass Fig7 x 2
Bass Fig8 x 1
Bass Fig1 x 6
Bass Fig3 x 1
Bass Fig9 x 1
Bass Fig1 x 2
Bass Fig10 x Fadeout