Metallica:

: Metallica - "Harvester of Sorrow"










[ne]FORMAT



MIDI







Harvester of Sorrow

( "...And Justice for All")

Metallica

: Hetfield and Ulrich
: Phil Boyle and Wayne Hanvey

1)
D--------4-3-2-----2
A--5-4-2-2-1-0-5-4-2 twice
E--3-2-0-------3-2-0
opening


2)
D------3-2------5-3-2------3-0-----0---0
A----2--------2----------2-------0------
E--0--------0----------0-------3-----1--
  pm..      .        ...     ...   .
main riff 4 times undistorted and rest of song distorted


3)
D---------------------4-3---------------------------4-3------
A--2--2-2-2-2-2-5-4---2-1---5-3--3--3-3-3-3-3-5-4---2-1---5-4
E--0--0-0-0-0-0-3-2-0-----0-3-2--1--1-1-1-1-1-3-2-0-----0-3-2
pm...........................................................


4)
D--2-----------------------------------------
A--2--------0--------0---------------1~~-----
E--0--0-1-2----0-1-2----2-1-0--0-1-2----2-1-0


5a)
D----------2--2--2-              -------0-5--5--5
A--------1-2--2--2- 4 times then ---------5--5--5
E--0-1-2---0--0--0-              -0-1-2---3--3--3
verse riff (before singing)

5b)
D--------2--2--2   -------5--5--5
A--------2--2--2   -------5--5--5
E--0-1-2-0--0--0   -0-1-2-3--3--3
while singing


6)
e----------------------             --------------------
B----------------------             --------------------
G------------0-2-3-2-3- 1st half of -----------0-2-3-2-- 2nd half of
D------0-2-3----------- riff 3      -----0-2-3---------3 riff 3
A--0-3-----------------             -0-3----------------
E----------------------             --------------------
post solo


7)
e-------------------------
B--3-2-0-2-3-5-3-2-0------
G--3-2-0-2-3-5-3-2-0-3-2-0
D--------------------3-2-0
A-------------------------
E-------------------------
trill
(I only play the lower line.)

________________________________________________________________
solo:
E-----------------------------------------------------
B----15b---15b---15b---15b---17b--15b---15b-----------
G--------------------------------------------14-------
D-----------------------------------------------------
A-----------------------------------------------------
E-----------------------------------------------------

E--17b---17b-15p14---14--------------------------------
B------------------17---17p15-17-15p14s12-14p12s10-----
G------------------------------------------------------
D------------------------------------------------------
A------------------------------------------------------
E------------------------------------------------------

E------------------------------------------------------
B--12bp10-12bp10-12bp10-12bp10-12b---------------------
G--------------------------------------12---14---------
D------------------------------------------------------
A------------------------------------------------------
E------------------------------------------------------

E------------------------------------------------------
B------------------------------------------------------
G---11h12p11-------------------------------------------
D----------------------------/14-----------------------
A-------------14------14h15----------------------------
E------------------------------------------------------

E----------------14-15s19---------17--15---15h17p15p14-
B--------14-15-17--------------------------------------
G---14h16----------------------------------------------
D-14---------------------------------------------------
A------------------------------------------------------
E------------------------------------------------------

E--14h15p14--------------------------------------------
B-----------15--17-----------(17)----------------------
G------------------------------------------------------
D------------------------------------------------------
A------------------------------------------------------
E------------------------------------------------------