Metallica: другие аккорды и тексты

Табулатура для ударных: Metallica - "Harvester of Sorrow"

» Главная
» Аккорды
» Школа игры
» Софт для гитары
» Схемы примочек
» Магазин
» Продам
» Куплю
» Фотографии
» [ne]FORMAT
» Ссылки
» Форум
» Знакомства
» MIDI
» Контакты


»



Harvester of Sorrow

(альбом "...And Justice for All")

Metallica

слова: Hetfield and Ulrich
подбор: Pete Salisbury, dork@weirdness.com

(INTRO)
RC:-----------------2--:
T2:---------2-2--------:
T1:----2-2-------------:
BA:-----------------2--:
SN:--2-----2----2-2----: moderate (x2)

(INTRO CONT.)
RC:----------------------------------------------3--:
CC:---------------1-1-1-1-1-1-1-2-2-2-2-2-2-2-2-----:
BA:----------------------------------------------3--:
OH:--1-1-1-1-1-1-1----------------------------------: moderate (x3) - choke ride cymbal on third

(INTRO CONT. 2)
FT:--------------------------------------------:
T2:------------------2-2--2-2--2-2--2-2--------:
T1:--2-2--2-2--2-2------------------------2-2--:
BA:--2----2--------2------2----2--------2------: moderate (x5)

INTRO

(INTRO CONT. 3)
FT:--------2---------------2--------:
T2:----2-2-------2-------2----------:
T1:--2-------2-2---2---2---------2--:
B2:------------------2--------2-----:
B1:--2-----------------------2-2----: moderate (x5) - snare and crash cymbal smash on third

INTRO

INTRO CONT. 3 (x5) - slow double bass rolls in between - snare and crash cymbal smash on fifth

(INTRO CONT. 4)
BA:--2-----:
SN:---2-2--: moderate

(MAIN)
B2:------------2-------:
B1:--2-------2---------:
OH:--2-2-2-2-2-2-2-2---:
SN:------2---------2---: moderate (x3)

(MAIN BREAK)
CC:--2--2--2--:
SN:--2--2--2--: moderate

MAIN

(MAIN BREAK 2)
SN:--2--2--2-2--: moderate

MAIN (x3) ["My life suffocates..."]

MAIN BREAK 2 (x3) - concluded with snare and crash cymbal smash

MAIN (x2)

(ROLL)
T2:----2-2--------:
T1:---2-----------:
SN:--2-----2-2-2--: moderate

MAIN (x2)

(MAIN BREAK 3)
CC:----2----2---2-------------------2--:
BA:--2----2---2---2--------------------:
OH:-----2-----2------------------------:
SN:----2----2---2---2-2-2-2-2--2-2--2--: moderate

MAIN (x3) ["Anger, misery..."]

(ROLL 2)
T2:---------------------------2--:
T1:-------------------------2----:
B2:--------------------------2---:
B1:-------------------------2-2--:
SN:--2-2-2-2-2-2-2-3-3-3-3-------: moderate

(PRE-CHORUS)
CC:-----2--: 
T2:---2----:
T1:--2-----:
B2:---2----:
B1:--2-2---:
SN:-----2--: moderate (x3)

INTRO

(MAIN 2)
CC:--------2--:
B2:----2-2----:
B1:--2--------:
OH:--2-2-2----:
SN:--------2--: ["Harvester of sorrow..."] moderate (x7)

INTRO

(MAIN BREAK 4)           [choke][choke]
CC:-------------------------3------3--:
SN:--2-2-2-2-2-2-2-3-3-3-3-----2-2----: moderate

(MAIN BREAK 5)
CC:--2-2-2-2-2-2-2-2---:
B2:------------2-------:
B1:--2-------2---------:
SN:------2---------2---: moderate (x3)

MAIN BREAK 2

MAIN ["Pure black looking clear..."]
MAIN BREAK 2 (x3) - concluded with snare and crash cymbal smash
MAIN (x2)
ROLL
MAIN BREAK 3
MAIN (x3)
ROLL 2
PRE-CHORUS
INTRO (x3)

MAIN BREAK 4
MAIN (x11)
INTRO CONT. 3

(MAIN BREAK 6)
SN:--2-2--: moderate

MAIN (x2)

(MAIN BREAK 7)             [choke]
CC:---------------------------3--:
T1:-------------------2-2--------:
SN:--2-3-3-3-2-3-3-3------2-2----: moderate

MAIN (x2)
MAIN BREAK 7

(MAIN BREAK 8)
     [choke][choke]
CC:-----3-----3--:
SN:--2-2--2-2----: moderate

MAIN (x4)

(MAIN BREAK 9)
SN:--2-2-2-2-2-2-2-3-3-3-3--: moderate

MAIN (x4)

(MAIN BREAK 10)
     [choke][choke]
CC:-----2-----2--:
T2:-------2-2----:
T1:--2-2---------: moderate (x2)

- short pause

MAIN ["All have said their prayers..."]
MAIN BREAK 2 (x3) - concluded with snare and crash cymbal smash
MAIN (x2)

ROLL (x2)
MAIN BREAK 3
MAIN (x3) ["Harvester of sorrow..."]

(MAIN BREAK 11)
CC:---------------2-----------------:
T2:---------------------2-2---------:
T1:-------------2------2-2----------:
SN:--2-2-3-3-3----2--2-----2-2-3-3--: moderate

MAIN (x3)

(MAIN BREAK 12)
CC:------2------2--:
BA:--2-2----2-2----:
SN:------2------2--: moderate

MAIN (x3)

(MAIN BREAK 13)
FT:---------------------2--------:
T2:--------------------2---------:
T1:--------2----------2----------:
SN:--2-2-2---2-3-3--2-----2-2-2--: moderate

MAIN (x3)

(MAIN BREAK 14)
CC:-----------------2--2--2--:
T1:-------------2------------:
BA:-----------------2--2--2--:
SN:--2-2-3-3-3-2---2--2--2---: moderate

MAIN (x3)

(OUTRO)            [choke]
RC:-------------------2--:
FT:----------------2-----:
T2:---------------2------:
T1:--------------2-------:
SN:--2--2-3-3-3------2---: moderate