Metallica:

: Metallica - "Shortest Straw"










[ne]FORMAT



MIDI







Shortest Straw

( "...And Justice for All")

Metallica

: Hetfield and Ulrich
: Phil Boyle

1)
D--2---2---2---2-2---2-----2---2---2-2---2-3-3-2
A--2-3-2---2-3-2-2-3-2-5-3-2---2-3-2-2-3-2-1-3-2 twice
E--0-1-0---0-1-0-0-1-0-3-1-0---0-1-0-0-1-0---1-0
pm............................................


2a)
D------------------------3-----------------------3------
A--2-3-2---------2-3-2-5-1-3-2-3-2---------2-3-2-1-5-3-2 
E--0-1-0-0-0-0-0-0-1-0-3---1-0-1-0-0-0-0-0-0-1-0---3-1-0
pm......................................................

2b)
D------------------------3------------------------------
A--2-3-2---------2-3-2-5-1-3-2-3-2---------2-3-2-5-5-4-3
E--0-1-0-0-0-0-0-0-1-0-3---1-0-1-0-0-0-0-0-0-1-0-3-3-2-1
pm......................................................


3a)
D-------8-7-8---------- three ------8-7-8----------
A--2--7-------7-2-3-2-3 times -2--7-------7-2-5-2-5
E--0------------0-1-0-1 then  -0------------0-3-0-3

3b)
D-------8-7-8-----2---2-------8-7-5------------------
A--2--7-------7-2-0-2-0--2--7-------5-5-5-4-4-4-3-3-3
E--0------------0---0----0----------3-3-3-2-2-2-1-1-1


4)
D----------------------------------------------------------------------
A--------------2-3-2-3-------------2-5-2-5-------------2-3-2-3--5-4-3-2
E--0-0--0-0-0--0-1-0-1-0-0--0-0-0--0-3-0-3-0-0--0-0-0--0-1-0-1--3-2-1-0
pm.....................................................................
Suspicion is your name...


5)
D------------------------------------2---2-----------------------------
A--------------4-5-4-5-------------4-0-4-0-------------4-5-4-5--7-6-5-4
E--2-2--2-2-2--2-3-2-3-2-2--2-2-2--2---2---2-2--2-2-2--2-3-2-3--5-4-3-2
pm.....................................................................
The public eye's...


6)
D------------------------9-9-9/10--------------------------9/10-----
A--9-9-9-9-8p7p5-8p7p5---7-7-7/8--9-9/10-8p7p5-8p7p5---7-7-7/8--9/10
E--7-7-7-7------------------------7-7/8----------------5-5------7/8-
right before chorus


7)
D-----------------------------------
A--2--3--4--5--5-3-2--3--4--5--5-4-3
E--0--1--2--3--3-1-0--1--2--3--3-2-1
pre solo