Metallica:

: Metallica - "...And Justice For All"










[ne]FORMAT



MIDI







...And Justice For All

( "...And Justice for All")

Metallica

: Hetfield and Ulrich
: Brett Renike and Phil Boyle

1)
e-----------------------------------------------------------------------
B-----------------------------------------------------------------------
G--------------------------------------------------------------------2--
D--6-7-9---7-6h7p6-4-5-5-4-7-4-2-3-5---3-2h3p2-0-2-2-0-2-0-0-2-2-0-2---3
A--7-----7---------5-----5---5-3-----3---------2-----2---2-1-----1-----1
E--0--------------------------------------------------------------------
                                               *************************
Play clean, but the * part is distored in the 3 and 4 time through
and the whole thing is distorted the 5th time.


2)
D--8-7--8-7-6--8-7-6-5--8-7-5-4-7-5-4-2-5-4-2-7-4-2-4-2-5-3-2-5-3-2-5-3-2
A--8-7--8-7-6--8-7-6-5--8-7-5-4-7-5-4-2-5-4-2-7-4-2-4-2-5-3-2-5-3-2-5-3-2
E--6-5--6-5-4--6-5-4-3--6-5-3-2-5-3-2-0-3-2-0-5-2-0-2-0-5-3-0-5-3-2-5-3-0
  pm...................................................................


3)
D--8-8-7--8-8-7-----------8-8-7--------------------------------
A--8-8-7--8-8-7--7-7-5----8-8-7--7-7-5----8-8-7--8-8-7--5-5-4-2
E--6-6-5--6-6-5--------7--6-6-5--------7--6-6-5--6-6-5--3-3-2-0
 pm............           .....


4)
D-----------------------3-3-2--3-3-2
A--2-2--2-2-3--2-2-2-2--1-1-0--1-1-0
E--0-0--0-0-1--0-0-0-0--------------
  pm.......      ...    .....  .....
Halls of Justice...


5)
D-------------------4-----------------------4
A--2-2-2-2-2-5-5-5--4-------------5\4-2-4/5-4
E--0-0-0-0-0-3-3-3--2-2-2-2-2-2-2-3\2-0-2/3-2
  pm..............    ...........     .  
                    The ultimate insanity....

6)
G--0h5h7---------------------
D---------0h5h7--------------
A----------------0h5h7--0h2h3
E----------------------------
...supremacy


7)
D--2----------------------
A--2-------------3-2-0-2-3
E--0-0-0-0-0-0-0-1-0-0-0-1
  pm............
Nothing can save you


8)
D--2--4--5------*-2--4--5------*-2--4-----5-----3-3-2--3-3-2
A--0--2--3--3-2-*-0--2--3--3-2-*-0--2--5--3--3--1-1-0--1-1-0
E-----------1-0-*----------1-0-*-------3-----1--------------
Justice is lost
*insert riff 7) in with this one


9)
D---------------------------------------------------
A--8-8-7--8-8-7--7-7-5--7-7-5--5-5-4--5-5-4--3-3-3-3
E--6-6-5--6-6-5--5-5-3--5-5-3--3-3-2--3-3-2--1-1-1-1
pm....    ...    ...    ...    ...    ...    .......
after solo


10)
G--9-----9\7-----7\5-----5\4-----4\3-----3-3-----3-3-----3--
D--9-----9\7-----7\5-----5\4-----4\3-----3-3-----3-3-----3-2
A--7-x-x-7\5-x-x-5\3-x-x-3\2-x-x-2\1-x-x-1-1-x-x-1-1-x-x-1-2
E--7-x-x-7\5-x-x-5\3-x-x-3\2-x-x-2\1-x-x-1-1-x-x-1-1-x-x-1-0
pm........................................................
second solo backing (solo is a variation of opening riff)


11)
D-----2-----2--5--4--2-------
A--2--0--2--0--3--2--0--5-3-2
E--0-----0--------------3-2-0
Background of closing riff