Metallica:

: Metallica - "Blackened"










[ne]FORMAT



MIDI







Blackened

( "...And Justice for All")

Metallica

: Hetfield and Ulrich
: Chris Lucas and Marnix Maas

Intro (two gtrs.):                      (Gtr. II shown on right)
E|-14-15h17p15-17b(18)r(17)-17b(18)r(17)-17\15-15-17\15-15-9\7-7------------|
B|-16-17h19p17-19b(20)r(19)-19b(20)r(19)-19\17-17-19\17-17-------12\10|7----|
G|--------------------------------------------------------------------------|
D|--------------------------------------------------------11\9-9------------|
A|--------------------------------------------------------------------------|
E|--------------------------------------------------------------------------|

E|-------------------------------------------------------------------|
B|-8-10|7-12-10|7\8|5-8|5-10|7\8|5-8|5-/12-12-12-12\10|7-8-10|7-12|8-|
G|-9-------9---------------------------------------------9-----------|
D|---------------------------------------9-10--9---------------------|
A|-------------------------------------------------------------------|
E|-------------------------------------------------------------------|

E|----------------------------------------------------------------------|
B|-10|7\8|5-8|5-10|7\8|5-8|5-\0-4-5h7p5-7-(7)b(8)r(7)-10|7\5-5-10|7\5-5-|
G|----------------------------------------------------------------------|
D|----------------------------------------------------------------------|
A|----------------------------------------------------------------------|
E|----------------------------------------------------------------------|


D--------------------------8---------------------------------------
A----7---7---7-8-7---7---7---7---7---7---7-8-7----0-1-----2-1-1----
E--0---0---0-------0---0-------0---0---0--------------2-3-------1-0

D------------------------------------------------------------------
A----7---7---7-8-7---7---7---7---7---7---7-8-7----0-1-----2-1-1----
E--0---0---0-------0---0---7---0---0---0--------------2-3-------1-0
intro


D-|--------------3-----------|-------------3----------
A-|--------------1-----2-1---|-------------1-----2-1--
E-|-0-0-0-0-0-0----0-0-----3-|-3-3-3-3-3-3---3-3-----3
           Three times			last time
verse


E|------------------------------------------------------|
B|*-----------------------------------------------------|
G|*---------------------------------------------------8-|
D|-------2-------------3-2----------------2-----------8-|
A|---0-1-----------0-1----------------0-1-------------6-|
E|-0-------0-0-0-0---------0-0-0-0--0-------0-0-0-0-6---|

E|------------------------------------------------------| (End Fig. 3) 
B|-----------------------------------------------------*|
G|--------------------3------------------------------8-*|
D|-------2---------2----2----------------2-----------8--|
A|---0-1-------------1---------------0-1-------------6--|
E|-0-------0-0-0-0--------0-0-0-0--0-------0-0-0-0-6----|
half time feel


Solo:
t = tap ^ = bend        \/= use tremolo bar     = harmonics

|---------------------------------------------|
|*--------------------------------------------|
|*--------------------------------------------|
|------7-9-------7-9-------7-9--10/7--9h10p9--|
|-10/7-9-10-10/7-9-10-10/7-9-10------10h12p10-|
|---------------------------------------------|

|-------------------------------------------------|
|------------------------------------------------*|
|----------------7-9-------7-9--11--9h11p9-------*|
|------7-9-------9-10-10/7-9-10-12-10h12p10-9--7--|
|-10/7-9-10-10/7----------------------------10-9--|
|-------------------------------------------------|

|-------------------------------------------|
|-------------------------------------------|
|------7-9-------7-9-------7-9--11--9h11p9--|
|-10/7-9-10-10/7-9-10-10/7-9-10-12-10h12p10-|
|-------------------------------------------|
|-------------------------------------------|

|------------------------------------------|
|----------------7-8----7-8-10-8h10p8-7----|
|------7-9-------7-9-9--7-9-11-9h11p9-7-9--|
|-10/7-9-10-10/7-----10-----------------10-|
|------------------------------------------|
|------------------------------------------|

|-----------------------------------------------7--------7-8--7h8p7----------|
|----7-8----7-8----7-8-10-8h10p8----7-8----10/7-8-8-10/7-8-10-8h10p8-8-10/7--|
|-9--7-9-9--7-9-9--7-9-11-9h11p9-9--7-9-9---------9------------------9-------|
|-10-----10-----10---------------10-----10-----------------------------------|
|----------------------------------------------------------------------------|
|----------------------------------------------------------------------------|

|-------------------------------7-8-8-7----7---------------------------------|
|-8---7-8---7-8---7-8---7-8---7---------10---10-8-10-8-7-8-7---7-------------|
|-9/9-----9-----9-----9-----9--------------------------------9---9-7-9-7-6-7-|
|----------------------------------------------------------------------------|
|----------------------------------------------------------------------------|
|----------------------------------------------------------------------------|

|---------------------------------------7-9-7h9p7----7-9-10-12-12|10-9-7----7-|
|--------------------7-8-7h8p7---7-8-11-----------11---------------------11---|
|6-----6h7p6---6-7-9-----------9----------------------------------------------|
|--7-9-------9----------------------------------------------------------------|
|-----------------------------------------------------------------------------|
|-----------------------------------------------------------------------------|

|-9-10-12-9-t19p12-t19p10-t19p10p9-t18p10-t18p8-t18p8p7----------------------|
|-------------------------------------------------------t17p8-t17p7-t17p7p5--|
|----------------------------------------------------------------------------|
|----------------------------------------------------------------------------|
|----------------------------------------------------------------------------|
|----------------------------------------------------------------------------|

|---------------------------------------------------|
|-t17p8-t17p7-t17p7p5-t17p8p7-t17p8p7-t17p8p7p5s3s5-|
|---------------------------------------------------|
|---------------------------------------------------|
|---------------------------------------------------|
|---------------------------------------------------|

|-12^-12^-12^-rp10-12-10h12p10-9-10-9|10-9-7-6-19^-19^-r-18-15-14-15-15p14---|
|-10^-10^-10^-rp8--10--8h10p8--7-8--7|8--7-----17^-17^-r-16-13-12-13-13p12---|
|------------------------------------------9-8-------------------------------|
|----------------------------------------------------------------------------|
|----------------------------------------------------------------------------|
|----------------------------------------------------------------------------|

|----15p14----s12-14-18-14-12-18-14-12-18-14-12-18-14-12-18-14-12-18-14-12-|
|-17-13p12-15----------------------------------------------------------------|
|-14-------12----------------------------------------------------------------|
|----------------------------------------------------------------------------|
|----------------------------------------------------------------------------|
|----------------------------------------------------------------------------|

|-18-14-12-18-14-12-18-14-12-18-14-12--19----------------------------------|
|--------------------------------------------------------------------------|
|--------------------------------------------------------------------------|
|------------------------------------------5--5-5-5---4-4--5--5-5-5---4-4--|
|------------------------------------------5--5-5-5---4-4--5--5-5-5---4-4--|
|------------------------------------------3--3-3-3-0-2-2--3--3-3-3-0-2-2--|

|------------s18-19-24-22-20-19-23-21-19-17-20-19-17-15-19-17-15-14-14-17--|
|-------13^----------------------------------------------------------------|
|-------13^----------------------------------------------------------------|
|-3-3----------------------------------------------------------------------|
|-3-3----------------------------------------------------------------------|
|-1-1----------------------------------------------------------------------|

|-17p15-14-12-11-12-15-14-12-10-9-10-9-10-14-12-10-9-8-9-12-10-8-7---------|
|------------------------------------------------------------------10^-10^-|
|--------------------------------------------------------------------------|
|--------------------------------------------------------------------------|
|--------------------------------------------------------------------------|
|--------------------------------------------------------------------------|

|--------------------------------------------------------------------------|
|-12p10-8-7---7-8-7---7-----------7---------0---0---------0-\/--12---------|
|-----------9-------9---9-7-9---7---9-7---9---7---2-------------12---------|
|---------------------------------------9-----------4-2-0-------12---------|
|--------------------------------------------------------------------------|
|--------------------------------------------------------------------------|

|--------------------------------------------7h8p7----7-8-8h10h12-12-10-8-7--|
|-----------------------------7-8-7---7-8-10-------10------------------------|
|-7h9-7----5h7-5-4-5-4-----s9-------9----------------------------------------|
|-------10-------------4-----------------------------------------------------|
|----------------------------------------------------------------------------|
|----------------------------------------------------------------------------|

|-----------7--------------------------------------------------------|
|-------------10p8-7--\/------------------------------------------|
|-9-7--7-5------------\/--12p0-12p0-12p0-12p0-12p0-12p0-11p0-11p0-|
|-9-7--7-5-----------------------------------------------------------|
|--------------------------------------------------------------------|
|--------------------------------------------------------------------|

|-------------------------------------------------------------------------|
|-------------------------------------------------------------------------|
|-9p0-9p0-9p0-9p0-9p0-9p0-9p0-9p0-16p0-16p0-16p0-16p0-16p0-16p0-14p0-14p0-|
|-------------------------------------------------------------------------|
|-------------------------------------------------------------------------|
|-------------------------------------------------------------------------|

|----------------------------------------------------------------------------|
|----------------------------------------------------------------------------|
|-12p0-12p0-12p0-12p0-12p0-12p0-12p0-12p0-2p0-2p0-2h4p0-4p0-5p0-5p0-4p0-4p0--|
|----------------------------------------------------------------------------|
|----------------------------------------------------------------------------|
|----------------------------------------------------------------------------|

|--------------------------------------------------|
|--------------------------------------------------|
|-5p0-5p0-7p0-7p0-9p0-9p0-9p0-9p0-(5)-\/--\/--\/---|
|---------------------------------(5)-\/--\/--\/---|
|--------------------------------------------------|
|--------------------------------------------------|