Megadeth:

: Megadeth - "Peace Sells"










[ne]FORMAT



MIDI







Peace Sells

Megadeth


Once again I didn't bother to put in the palm
muting notation.  With this kind of music it
just takes too long.  Enjoy...
Any questions or comments send to:
tkolovos@mason1.gmu.edu

-----------!---------------------------------------------------
-----------!---------------------------------------------------
-----9\----!----7----------------------------------------------
-----9\--2-!----7-----8-8-7-7-6-6-5-5-4-4-3-3-2-2-8-7----------
-5-6-7\--2-!----5-----8-8-7-7-6-6-5-5-4-4-3-3-2-2-8-7----------
---------0-!----------6-6-5-5-4-4-3-3-2-2-1-1-0-0-6-5----------

-----------------------------------------------------------------
-----------------------------------------------------------------
-----------------------------------------------------------------
-2-2-2-2-2-2-2--6--2-2-2-2-2-2-2--5--2-2-2-2-2-2-2--6--2-2-2-2-2-
-2-2-2-2-2-2-2--6--2-2-2-2-2-2-2--5--2-2-2-2-2-2-2--6--2-2-2-2-2-
-0-0-0-0-0-0-0--4--0-0-0-0-0-0-0--3--0-0-0-0-0-0-0--4--0-0-0-0-0-
            If there's a new way..
----------!-------------------------------------------------------
----------!-------------8----------------------8------------------
----------!--9-9--7--9--7--7--9-----9-9--7--9--7--4--5------------
-2-2--8-7-!--9-9--7--9--5--7--9-----9-9--7--9--5--4--5---5-5-4-5--
-2-2--8-7-!--7-7--5--7-----5--7-----7-7--5--7-----2--3---5-5-4-5--
-0-0--6-5-!----------------------------------------------3-3-2-3--
                        This riff twice
--------------------!----------------------------------------------
--------------------!----------------------------------------------
-2------------------!----------------------------------------------
-0--4-5----5-4-3-5--!--------5^4^5---------4^2^4---------2^0^2-----
----4-5----5-4-3-5--!----------------------------------------------
----2-3----3-2-1-3--!--0--0---------0--0-----------0--0------------

-----------------------------------------------------------------1---
-----------------------------------------------------------------!---
-----------------------------------------------------------------!---
-----------------------------------------------------------------!---
-------5^4^5--------4^2^4--------2^0^2---------------------------!---
-0--0---------0--0---------0--0---------0--0--5^3^5--0--0--3^2^3-!---
Riff A twice
-------------------------------------------------------------------
-------------------------------------------------------------------
-------------------------------------------------------------------
-------9^7^9--------7^5^7--------5^4^5--------4^2^4--------2^0^2---
-------------------------------------------------------------------
-0--0---------0--0---------0--0---------0--0---------0--0----------
                  
--------------------------------------!-------------------------------
--------------------------------------!-------------------------------
--------------------------------------!-------------------------------
--------------------------------------!---4--4-4-4-4-4-4--5--5-5------
------5^4^5--------4^2^4--------2^0^2-!---4--4-4-4-4-4-4--5--5-5------
0--0---------0--0---------0--0--------!---2--2-2-2-2-2-2--3--3-3------
                Repeat riff A       Can you put a price...
--------------!--------------------------------------------------------
--------------!--------------------------------------------------------
--------------!--------------------------------------------------------
4--4-4--5--4--!-------------------2--------------------------------5---
4--4-4--5--4--!-------------------2-----------------------7--5--7------
2--2-2--3--2--!-------------------0------------------------------------
              Drums enter here....
------------!---------------------------------!--------------------------
------------!---------------------------------!--------------------------
------------!-----------------------4-4--4----!--------------------------
------------!--2----5-5--5--4-4--4--4-4--4----!-12-11-10-11-12-11-10-11--
---7--5--0--!--2----5-5--5--4-4--4--2-2--2----!-10--9--8--9-10--9--8--9--
0-----------!--0----3-3--3--2-2--2------------!--------------------------

-----------------------------!---------------------------------
-----------------------------!---------------------------------
-----------------------------!---9-----------------------------
11-11-11-11--12--12--12--12--!---9-----------------------------
11-11-11-11--12--12--12--12--!---7-----------------------------
-9--9--9--9--10--10--10--10--!---------------------------------